  0
SECTION
  2
HEADER
  9
$ACADVER
  1
AC1009
  9
$DWGCODEPAGE
  3
ansi_1252
  9
$INSBASE
 10
0.0
 20
0.0
 30
0.0
  9
$EXTMIN
 10
418.0641478712497
 20
-55.05285793119361
 30
0.0
  9
$EXTMAX
 10
637.4017558874973
 20
251.3844861984253
 30
0.0
  9
$LIMMIN
 10
0.0
 20
0.0
  9
$LIMMAX
 10
12.0
 20
9.0
  9
$ORTHOMODE
 70
     0
  9
$REGENMODE
 70
     1
  9
$FILLMODE
 70
     1
  9
$QTEXTMODE
 70
     0
  9
$MIRRTEXT
 70
     1
  9
$DRAGMODE
 70
     2
  9
$LTSCALE
 40
1.0
  9
$OSMODE
 70
    37
  9
$ATTMODE
 70
     1
  9
$TEXTSIZE
 40
0.2
  9
$TRACEWID
 40
0.05
  9
$TEXTSTYLE
  7
STANDARD
  9
$CLAYER
  8
0
  9
$CELTYPE
  6
BYLAYER
  9
$CECOLOR
 62
   256
  9
$DIMSCALE
 40
1.0
  9
$DIMASZ
 40
0.18
  9
$DIMEXO
 40
0.0625
  9
$DIMDLI
 40
0.38
  9
$DIMRND
 40
0.0
  9
$DIMDLE
 40
0.0
  9
$DIMEXE
 40
0.18
  9
$DIMTP
 40
0.0
  9
$DIMTM
 40
0.0
  9
$DIMTXT
 40
0.18
  9
$DIMCEN
 40
0.09
  9
$DIMTSZ
 40
0.0
  9
$DIMTOL
 70
     0
  9
$DIMLIM
 70
     0
  9
$DIMTIH
 70
     1
  9
$DIMTOH
 70
     1
  9
$DIMSE1
 70
     0
  9
$DIMSE2
 70
     0
  9
$DIMTAD
 70
     0
  9
$DIMZIN
 70
     0
  9
$DIMBLK
  1

  9
$DIMASO
 70
     1
  9
$DIMSHO
 70
     1
  9
$DIMPOST
  1

  9
$DIMAPOST
  1

  9
$DIMALT
 70
     0
  9
$DIMALTD
 70
     2
  9
$DIMALTF
 40
25.4
  9
$DIMLFAC
 40
1.0
  9
$DIMTOFL
 70
     0
  9
$DIMTVP
 40
0.0
  9
$DIMTIX
 70
     0
  9
$DIMSOXD
 70
     0
  9
$DIMSAH
 70
     0
  9
$DIMBLK1
  1

  9
$DIMBLK2
  1

  9
$DIMSTYLE
  2
STANDARD
  9
$DIMCLRD
 70
     0
  9
$DIMCLRE
 70
     0
  9
$DIMCLRT
 70
     0
  9
$DIMTFAC
 40
1.0
  9
$DIMGAP
 40
0.09
  9
$LUNITS
 70
     2
  9
$LUPREC
 70
     4
  9
$SKETCHINC
 40
0.1
  9
$FILLETRAD
 40
0.5
  9
$AUNITS
 70
     0
  9
$AUPREC
 70
     0
  9
$MENU
  1
.
  9
$ELEVATION
 40
0.0
  9
$PELEVATION
 40
0.0
  9
$THICKNESS
 40
0.0
  9
$LIMCHECK
 70
     0
  9
$CHAMFERA
 40
0.5
  9
$CHAMFERB
 40
0.5
  9
$SKPOLY
 70
     0
  9
$TDCREATE
 40
2305814.614386574
  9
$TDUPDATE
 40
2305814.614386586
  9
$TDINDWG
 40
0.0000000116
  9
$TDUSRTIMER
 40
0.0000000116
  9
$USRTIMER
 70
     1
  9
$ANGBASE
 50
0.0
  9
$ANGDIR
 70
     0
  9
$PDMODE
 70
     0
  9
$PDSIZE
 40
0.0
  9
$PLINEWID
 40
0.0
  9
$COORDS
 70
     1
  9
$SPLFRAME
 70
     0
  9
$SPLINETYPE
 70
     6
  9
$SPLINESEGS
 70
     8
  9
$ATTDIA
 70
     0
  9
$ATTREQ
 70
     1
  9
$HANDLING
 70
     1
  9
$HANDSEED
  5
184
  9
$SURFTAB1
 70
     6
  9
$SURFTAB2
 70
     6
  9
$SURFTYPE
 70
     6
  9
$SURFU
 70
     6
  9
$SURFV
 70
     6
  9
$UCSNAME
  2

  9
$UCSORG
 10
0.0
 20
0.0
 30
0.0
  9
$UCSXDIR
 10
1.0
 20
0.0
 30
0.0
  9
$UCSYDIR
 10
0.0
 20
1.0
 30
0.0
  9
$PUCSNAME
  2

  9
$PUCSORG
 10
0.0
 20
0.0
 30
0.0
  9
$PUCSXDIR
 10
1.0
 20
0.0
 30
0.0
  9
$PUCSYDIR
 10
0.0
 20
1.0
 30
0.0
  9
$USERI1
 70
     0
  9
$USERI2
 70
     0
  9
$USERI3
 70
     0
  9
$USERI4
 70
     0
  9
$USERI5
 70
     0
  9
$USERR1
 40
0.0
  9
$USERR2
 40
0.0
  9
$USERR3
 40
0.0
  9
$USERR4
 40
0.0
  9
$USERR5
 40
0.0
  9
$WORLDVIEW
 70
     1
  9
$SHADEDGE
 70
     3
  9
$SHADEDIF
 70
    70
  9
$TILEMODE
 70
     1
  9
$MAXACTVP
 70
    64
  9
$PLIMCHECK
 70
     0
  9
$PEXTMIN
 10
1.000000000000000E+20
 20
1.000000000000000E+20
 30
1.000000000000000E+20
  9
$PEXTMAX
 10
-1.000000000000000E+20
 20
-1.000000000000000E+20
 30
-1.000000000000000E+20
  9
$PLIMMIN
 10
0.0
 20
0.0
  9
$PLIMMAX
 10
12.0
 20
9.0
  9
$UNITMODE
 70
     0
  9
$VISRETAIN
 70
     1
  9
$PLINEGEN
 70
     0
  9
$PSLTSCALE
 70
     1
  0
ENDSEC
  0
SECTION
  2
TABLES
  0
TABLE
  2
VPORT
 70
     1
  0
VPORT
  2
*ACTIVE
 70
     0
 10
0.0
 20
0.0
 11
1.0
 21
1.0
 12
0.0
 22
0.0
 13
0.0
 23
0.0
 14
0.5
 24
0.5
 15
0.5
 25
0.5
 16
0.0
 26
0.0
 36
1.0
 17
527.7329518793734
 27
79.29927876114948
 37
0.0
 40
274.0783588523799
 41
0.8162788230101439
 42
50.0
 43
0.0
 44
0.0
 50
0.0
 51
0.0
 71
     0
 72
   100
 73
     1
 74
     3
 75
     0
 76
     0
 77
     0
 78
     0
  0
ENDTAB
  0
TABLE
  2
LTYPE
 70
    13
  0
LTYPE
  2
CONTINUOUS
 70
     0
  3
Solid line
 72
    65
 73
     0
 40
0.0
  0
LTYPE
  2
VOLLINIE
 70
     0
  3
____________________
 72
    65
 73
     0
 40
0.0
  0
LTYPE
  2
ZWEISTRICHPUNKT
 70
     0
  3
__ __ . __ __ . __ 
 72
    65
 73
     6
 40
22.225
 49
0.25
 49
-0.125
 49
0.25
 49
-0.125
 49
0.0
 49
-0.125
  0
LTYPE
  2
STRICHPUNKT_LANG
 70
     0
  3
___ _ ___ _ ___ _ _
 72
    65
 73
     4
 40
28.575
 49
0.75
 49
-0.125
 49
0.125
 49
-0.125
  0
LTYPE
  2
STRICHPUNKT
 70
     0
  3
_._._._._._._._._._
 72
    65
 73
     4
 40
12.7
 49
0.25
 49
-0.125
 49
0.0
 49
-0.125
  0
LTYPE
  2
STRICHLINIE_LANG
 70
     0
  3
_ _ _ _ _ _ _ _ _ _
 72
    65
 73
     2
 40
9.524999999999999
 49
0.25
 49
-0.125
  0
LTYPE
  2
STRICHZWEIPKT__KURZ
 70
     0
  3
__..__..__..__..__.
 72
    65
 73
     6
 40
15.875
 49
0.25
 49
-0.125
 49
0.0
 49
-0.125
 49
0.0
 49
-0.125
  0
LTYPE
  2
GEPUNKTET
 70
     0
  3
...................
 72
    65
 73
     2
 40
3.175
 49
0.0
 49
-0.125
  0
LTYPE
  2
STRICHLINIE
 70
     0
  3
__ __ __ __ __ __ _
 72
    65
 73
     2
 40
4.762499999999999
 49
0.125
 49
-0.0625
  0
LTYPE
  2
STRICHZWEIPUNKT
 70
     0
  3
___ _ _ ___ _ _ ___
 72
    65
 73
     6
 40
31.75
 49
0.625
 49
-0.125
 49
0.125
 49
-0.125
 49
0.125
 49
-0.125
  0
LTYPE
  2
STRICHZWEIPKT__LANG
 70
     0
  3
________ _ _ ______
 72
    65
 73
     6
 40
37.2745
 49
1.0
 49
-0.0725
 49
0.125
 49
-0.0725
 49
0.125
 49
-0.0725
  0
LTYPE
  2
STRICHLINIE_KURZ
 70
     0
  3
_ _ _ _ _ _ _ _ _ _
 72
    65
 73
     2
 40
3.682999999999999
 49
0.0725
 49
-0.0725
  0
LTYPE
  2
HIDDEN
 70
     0
  3
-- -- -- -- -- -- -
 72
    65
 73
     2
 40
76.19999999999999
 49
2.0
 49
-1.0
  0
ENDTAB
  0
TABLE
  2
LAYER
 70
     4
  0
LAYER
  2
0
 70
     0
 62
     7
  6
CONTINUOUS
  0
LAYER
  2
HILFSLINIEN
 70
     0
 62
     7
  6
CONTINUOUS
  0
LAYER
  2
BEMESSUNG
 70
     0
 62
     7
  6
CONTINUOUS
  0
LAYER
  2
LAYER1
 70
     0
 62
     7
  6
CONTINUOUS
  0
ENDTAB
  0
TABLE
  2
STYLE
 70
     1
  0
STYLE
  2
STANDARD
 70
     0
 40
0.0
 41
1.0
 50
0.0
 71
     0
 42
0.2
  3
txt
  4

  0
ENDTAB
  0
TABLE
  2
VIEW
 70
     0
  0
ENDTAB
  0
TABLE
  2
UCS
 70
     0
  0
ENDTAB
  0
TABLE
  2
APPID
 70
     2
  0
APPID
  2
ACAD
 70
     0
  0
APPID
  2
PUNCH__SOFTWARE_VIACAD
 70
     0
  0
ENDTAB
  0
TABLE
  2
DIMSTYLE
 70
     1
  0
DIMSTYLE
  2
STANDARD
 70
     0
  3

  4

  5

  6

  7

 40
1.0
 41
0.18
 42
0.0625
 43
0.38
 44
0.18
 45
0.0
 46
0.0
 47
0.0
 48
0.0
140
0.18
141
0.09
142
0.0
143
25.4
144
1.0
145
0.0
146
1.0
147
0.09
 71
     0
 72
     0
 73
     1
 74
     1
 75
     0
 76
     0
 77
     0
 78
     0
170
     0
171
     2
172
     0
173
     0
174
     0
175
     0
176
     0
177
     0
178
     0
  0
ENDTAB
  0
ENDSEC
  0
SECTION
  2
BLOCKS
  0
BLOCK
  8
0
  2
$MODEL_SPACE
 70
     0
 10
0.0
 20
0.0
 30
0.0
  3
$MODEL_SPACE
  1

  0
ENDBLK
  5
21
  8
0
  0
BLOCK
 67
     1
  8
0
  2
$PAPER_SPACE
 70
     0
 10
0.0
 20
0.0
 30
0.0
  3
$PAPER_SPACE
  1

  0
ENDBLK
  5
1D
 67
     1
  8
0
  0
ENDSEC
  0
SECTION
  2
ENTITIES
  0
ARC
  5
6E
  8
HILFSLINIEN
  6
VOLLINIE
 62
    18
 10
473.3812777810258
 20
162.9046676842918
 30
0.0
 40
96.99999999999986
 50
252.7150115206228
 51
288.1544778398325
  0
ARC
  5
6F
  8
HILFSLINIEN
  6
VOLLINIE
 62
    18
 10
475.6678028989681
 20
101.3215761561742
 30
0.0
 40
28.00000000000002
 50
282.2914674810995
 51
317.1643756193235
  0
ARC
  5
70
  8
HILFSLINIEN
  6
VOLLINIE
 62
    18
 10
473.3812777810257
 20
162.9046676842921
 30
0.0
 40
100.0000000000001
 50
251.1473457023134
 51
304.781658902308
  0
ARC
  5
71
  8
HILFSLINIEN
  6
VOLLINIE
 62
    18
 10
475.6678028989681
 20
101.3215761561743
 30
0.0
 40
25.00000000000014
 50
282.2914674810997
 51
0.0
  0
CIRCLE
  5
72
  8
HILFSLINIEN
  6
VOLLINIE
 62
    18
 10
524.9928028989681
 20
88.59466768429206
 30
0.0
 40
3.500000000000028
  0
LINE
  5
73
  8
HILFSLINIEN
  6
VOLLINIE
 62
    18
 10
501.9914219096306
 20
92.02043786600007
 30
0.0
 11
516.5244845706686
 21
75.51362818140205
 31
0.0
  0
CIRCLE
  5
74
  8
HILFSLINIEN
  6
VOLLINIE
 62
    18
 10
510.1928028989682
 20
105.404667684292
 30
0.0
 40
3.500000000000014
  0
ARC
  5
75
  8
HILFSLINIEN
  6
VOLLINIE
 62
    18
 10
524.5357971557333
 20
103.1124764290942
 30
0.0
 40
5.000000000000165
 50
170.9201924026812
 51
271.8030170346614
  0
LINE
  5
76
  8
HILFSLINIEN
  6
VOLLINIE
 62
    18
 10
500.6678028989682
 20
105.404667684292
 30
0.0
 11
500.6678028989682
 21
101.3215761561742
 31
0.0
  0
ARC
  5
77
  8
HILFSLINIEN
  6
VOLLINIE
 62
    18
 10
500.4903137852798
 20
90.69881976722586
 30
0.0
 40
1.999999999999981
 50
41.36160471867073
 51
156.8315690042325
  0
ARC
  5
78
  8
HILFSLINIEN
  6
VOLLINIE
 62
    18
 10
515.0233764463178
 20
74.1920100826279
 30
0.0
 40
1.99999999999994
 50
295.1455601654434
 51
41.36160471867043
  0
ARC
  5
79
  8
HILFSLINIEN
  6
VOLLINIE
 62
    18
 10
501.3966675338262
 20
77.46665434340457
 30
0.0
 40
7.086062333812881
 50
288.1544778398326
 51
137.1643756193238
  0
LINE
  5
7A
  8
HILFSLINIEN
  6
VOLLINIE
 62
     6
 10
430.8178028989681
 20
88.16775735429498
 30
0.0
 11
430.8178028989681
 21
62.74162159012233
 31
0.0
  0
ARC
  5
7B
  8
HILFSLINIEN
  6
VOLLINIE
 62
    18
 10
467.1524076289431
 20
140.4046676842919
 30
0.0
 40
64.99999999999987
 50
245.5822401978764
 51
282.2914674810995
  0
ARC
  5
7C
  8
HILFSLINIEN
  6
VOLLINIE
 62
    18
 10
467.1524076289431
 20
140.4046676842916
 30
0.0
 40
67.99999999999963
 50
252.1182672110704
 51
282.2914674810995
  0
LINE
  5
7D
  8
HILFSLINIEN
  6
VOLLINIE
 62
    18
 10
424.067802898968
 20
67.17966768429186
 30
0.0
 11
437.5678028989681
 21
67.17966768429186
 31
0.0
  0
LINE
  5
7E
  8
HILFSLINIEN
  6
VOLLINIE
 62
    18
 10
424.067802898968
 20
83.17966768429199
 30
0.0
 11
437.5678028989681
 21
83.17966768429199
 31
0.0
  0
ARC
  5
7F
  8
HILFSLINIEN
  6
VOLLINIE
 62
    18
 10
445.4024130574631
 20
72.99191123236687
 30
0.0
 40
2.834610158495025
 50
72.11826721107143
 51
252.715011520624
  0
LINE
  5
80
  8
HILFSLINIEN
  6
VOLLINIE
 62
    18
 10
439.5678028989681
 20
81.17966768429197
 30
0.0
 11
439.5678028989681
 21
68.79489711608561
 31
0.0
  0
ARC
  5
81
  8
HILFSLINIEN
  6
VOLLINIE
 62
    18
 10
437.5678028989681
 20
81.17966768429187
 30
0.0
 40
2.000000000000108
 50
27.71020904904068
 51
89.99999999999837
  0
ARC
  5
82
  8
HILFSLINIEN
  6
VOLLINIE
 62
    18
 10
441.1090460407195
 20
83.03966688079625
 30
0.0
 40
1.999999999999795
 50
207.7102090490376
 51
245.5822401979419
  0
ARC
  5
83
  8
HILFSLINIEN
  6
VOLLINIE
 62
    18
 10
437.5678028989682
 20
69.17966768429172
 30
0.0
 40
1.999999999999854
 50
269.9999999999984
 51
315.5132838752859
  0
ARC
  5
84
  8
HILFSLINIEN
  6
VOLLINIE
 62
    18
 10
440.4214546347532
 20
66.37669216337677
 30
0.0
 40
1.99999999999989
 50
71.14734570231118
 51
135.513283875285
  0
LINE
  5
85
  8
HILFSLINIEN
  6
VOLLINIE
 62
    18
 10
422.067802898968
 20
81.17966768429197
 30
0.0
 11
422.067802898968
 21
69.17966768429186
 31
0.0
  0
LINE
  5
86
  8
HILFSLINIEN
  6
STRICHLINIE_LANG
 62
    18
 10
427.0553028989681
 20
83.17966768429199
 30
0.0
 11
427.0553028989683
 21
67.17966768429186
 31
0.0
  0
LINE
  5
87
  8
HILFSLINIEN
  6
STRICHLINIE_LANG
 62
    18
 10
434.5803028989681
 20
83.17966768429199
 30
0.0
 11
434.5803028989681
 21
67.17966768429186
 31
0.0
  0
LINE
  5
88
  8
HILFSLINIEN
  6
STRICHLINIE_LANG
 62
    18
 10
435.5803028989681
 20
83.17966768429199
 30
0.0
 11
435.5803028989681
 21
67.17966768429186
 31
0.0
  0
LINE
  5
89
  8
HILFSLINIEN
  6
STRICHLINIE_LANG
 62
    18
 10
426.0553028989681
 20
83.17966768429199
 30
0.0
 11
426.0553028989682
 21
67.17966768429186
 31
0.0
  0
ARC
  5
8A
  8
HILFSLINIEN
  6
VOLLINIE
 62
    18
 10
424.0678028989681
 20
81.17966768429187
 30
0.0
 40
2.000000000000107
 50
90.00000000000325
 51
180.0
  0
ARC
  5
8B
  8
HILFSLINIEN
  6
VOLLINIE
 62
    18
 10
424.0678028989681
 20
69.17966768429191
 30
0.0
 40
2.000000000000058
 50
180.0
 51
269.9999999999984
  0
ARC
  5
8C
  8
HILFSLINIEN
  6
VOLLINIE
 62
    18
 10
489.1678028989683
 20
146.6613944754451
 30
0.0
 40
31.9999999999999
 50
10.47039786406511
 51
88.25594608955014
  0
LINE
  5
8D
  8
HILFSLINIEN
  6
VOLLINIE
 62
    18
 10
422.067802898968
 20
161.3796676842921
 30
0.0
 11
422.067802898968
 21
173.3796676842922
 31
0.0
  0
LINE
  5
8E
  8
HILFSLINIEN
  6
VOLLINIE
 62
    18
 10
439.5678028989682
 20
161.2507893413659
 30
0.0
 11
439.5678028989681
 21
174.3464827054836
 31
0.0
  0
LINE
  5
8F
  8
HILFSLINIEN
  6
VOLLINIE
 62
     6
 10
430.8178028989681
 20
154.3915780142891
 30
0.0
 11
430.8178028989681
 21
179.8177137784617
 31
0.0
  0
LINE
  5
90
  8
HILFSLINIEN
  6
STRICHLINIE_LANG
 62
    18
 10
427.0553028989681
 20
159.3796676842921
 30
0.0
 11
427.0553028989683
 21
175.3796676842922
 31
0.0
  0
LINE
  5
91
  8
HILFSLINIEN
  6
STRICHLINIE_LANG
 62
    18
 10
434.5803028989681
 20
159.3796676842921
 30
0.0
 11
434.5803028989681
 21
175.3796676842922
 31
0.0
  0
LINE
  5
92
  8
HILFSLINIEN
  6
STRICHLINIE_LANG
 62
    18
 10
435.5803028989681
 20
159.3796676842921
 30
0.0
 11
435.5803028989681
 21
175.3796676842922
 31
0.0
  0
LINE
  5
93
  8
HILFSLINIEN
  6
STRICHLINIE_LANG
 62
    18
 10
426.0553028989681
 20
159.3796676842921
 30
0.0
 11
426.0553028989682
 21
175.3796676842922
 31
0.0
  0
ARC
  5
94
  8
HILFSLINIEN
  6
VOLLINIE
 62
    18
 10
473.1678028989682
 20
91.71466768429228
 30
0.0
 40
76.99999999999973
 50
78.36870691132235
 51
115.3070746661395
  0
ARC
  5
95
  8
HILFSLINIEN
  6
VOLLINIE
 62
    18
 10
485.6678028989684
 20
152.4415151242837
 30
0.0
 40
17.9999999999997
 50
0.0
 51
78.3687069113231
  0
ARC
  5
96
  8
HILFSLINIEN
  6
VOLLINIE
 62
    18
 10
485.6678028989682
 20
152.4415151242835
 30
0.0
 40
14.99999999999999
 50
0.0
 51
78.36870691132245
  0
ARC
  5
97
  8
HILFSLINIEN
  6
VOLLINIE
 62
    18
 10
489.1678028989682
 20
146.6613944754451
 30
0.0
 40
35.00000000000005
 50
0.0
 51
88.2559460895498
  0
CIRCLE
  5
98
  8
HILFSLINIEN
  6
VOLLINIE
 62
    18
 10
524.9928028989681
 20
122.214667684292
 30
0.0
 40
3.500000000000014
  0
LINE
  5
99
  8
HILFSLINIEN
  6
VOLLINIE
 62
    18
 10
500.6678028989682
 20
105.404667684292
 30
0.0
 11
500.6678028989682
 21
152.4415151242835
 31
0.0
  0
LINE
  5
9A
  8
HILFSLINIEN
  6
VOLLINIE
 62
    18
 10
524.1678028989683
 20
139.4496611568762
 30
0.0
 11
524.1678028989683
 21
146.661394475445
 31
0.0
  0
LINE
  5
9B
  8
HILFSLINIEN
  6
VOLLINIE
 62
    18
 10
504.1689110233192
 20
124.288706112942
 30
0.0
 11
521.3845312544198
 21
143.8423936862396
 31
0.0
  0
ARC
  5
9C
  8
HILFSLINIEN
  6
VOLLINIE
 62
    18
 10
534.167802898968
 20
139.449661156876
 30
0.0
 40
9.99999999999976
 50
180.0
 51
241.9715212987339
  0
ARC
  5
9D
  8
HILFSLINIEN
  6
VOLLINIE
 62
    18
 10
512.2226091078215
 20
150.922030880566
 30
0.0
 40
8.554806208853362
 50
180.0
 51
10.47039786406539
  0
LINE
  5
9E
  8
HILFSLINIEN
  6
VOLLINIE
 62
    18
 10
503.6678028989681
 20
150.9220308805659
 30
0.0
 11
503.6678028989681
 21
152.4415151242835
 31
0.0
  0
LINE
  5
9F
  8
HILFSLINIEN
  6
VOLLINIE
 62
    18
 10
424.067802898968
 20
159.3796676842921
 30
0.0
 11
437.5678028989682
 21
159.3796676842918
 31
0.0
  0
ARC
  5
A0
  8
HILFSLINIEN
  6
VOLLINIE
 62
    18
 10
437.5678028989682
 20
161.3796676842917
 30
0.0
 40
1.99999999999989
 50
270.0
 51
332.2450009856961
  0
ARC
  5
A1
  8
HILFSLINIEN
  6
VOLLINIE
 62
    18
 10
441.1075909372592
 20
159.5169007520186
 30
0.0
 40
1.999999999999819
 50
115.3070746659782
 51
152.2450009856967
  0
ARC
  5
A2
  8
HILFSLINIEN
  6
VOLLINIE
 62
    18
 10
424.0678028989681
 20
161.3796676842921
 30
0.0
 40
2.000000000000058
 50
180.0
 51
269.9999999999984
  0
ARC
  5
A3
  8
HILFSLINIEN
  6
VOLLINIE
 62
    18
 10
485.667802898968
 20
31.71466768429312
 30
0.0
 40
146.9999999999989
 50
88.25594608954987
 51
106.1652738238499
  0
ARC
  5
A4
  8
HILFSLINIEN
  6
VOLLINIE
 62
    18
 10
485.6678028989685
 20
31.7146676842886
 30
0.0
 40
150.0000000000034
 50
88.25594608955006
 51
107.5359112436413
  0
ARC
  5
A5
  8
HILFSLINIEN
  6
VOLLINIE
 62
    18
 10
473.167802898968
 20
91.71466768429204
 30
0.0
 40
79.99999999999996
 50
78.36870691132228
 51
109.4101188728037
  0
LINE
  5
A6
  8
HILFSLINIEN
  6
VOLLINIE
 62
    18
 10
424.067802898968
 20
175.3796676842922
 30
0.0
 11
437.5678028989681
 21
175.3796676842922
 31
0.0
  0
ARC
  5
A7
  8
HILFSLINIEN
  6
VOLLINIE
 62
    18
 10
437.5678028989681
 20
173.3796676842921
 30
0.0
 40
1.999999999999979
 50
54.8676597149881
 51
90.0
  0
ARC
  5
A8
  8
HILFSLINIEN
  6
VOLLINIE
 62
    18
 10
445.5804126464367
 20
170.0091711704248
 30
0.0
 40
3.012609747468656
 50
106.165273823848
 51
289.4101188728046
  0
ARC
  5
A9
  8
HILFSLINIEN
  6
VOLLINIE
 62
    18
 10
439.8696707409364
 20
176.6509677986369
 30
0.0
 40
1.999999999999994
 50
234.8676597149909
 51
287.5359112436432
  0
ARC
  5
AA
  8
HILFSLINIEN
  6
VOLLINIE
 62
    18
 10
424.0678028989682
 20
173.3796676842921
 30
0.0
 40
2.000000000000155
 50
90.00000000000487
 51
180.0
  0
ARC
  5
AB
  8
HILFSLINIEN
  6
VOLLINIE
 62
    18
 10
582.9057847638119
 20
180.4046676842913
 30
0.0
 40
100.9999999999993
 50
249.8158705738693
 51
279.1541863713425
  0
ARC
  5
AC
  8
HILFSLINIEN
  6
VOLLINIE
 62
    18
 10
582.9057847638119
 20
180.4046676842916
 30
0.0
 40
97.99999999999955
 50
249.8158705738693
 51
279.1541863713425
  0
ARC
  5
AD
  8
HILFSLINIEN
  6
VOLLINIE
 62
    18
 10
582.905784763812
 20
190.4046676842921
 30
0.0
 40
117.0000000000001
 50
251.3856607263723
 51
284.3205186456391
  0
ARC
  5
AE
  8
HILFSLINIEN
  6
VOLLINIE
 62
    18
 10
582.905784763812
 20
190.4046676842919
 30
0.0
 40
119.9999999999999
 50
245.8748437761033
 51
284.3205186456392
  0
ARC
  5
AF
  8
HILFSLINIEN
  6
VOLLINIE
 62
    18
 10
627.1333117880421
 20
-94.05466601256353
 30
0.0
 40
177.0000000000017
 50
88.76477986260743
 51
99.15418637134232
  0
ARC
  5
B0
  8
HILFSLINIEN
  6
VOLLINIE
 62
    18
 10
627.133311788042
 20
-94.05466601256236
 30
0.0
 40
180.0000000000005
 50
88.76477986260738
 51
99.15418637134233
  0
ARC
  5
B1
  8
HILFSLINIEN
  6
VOLLINIE
 62
    18
 10
630.9057847638121
 20
80.904667684292
 30
0.0
 40
5.000000000000008
 50
266.9330204035809
 51
88.7647798626092
  0
ARC
  5
B2
  8
HILFSLINIEN
  6
VOLLINIE
 62
    18
 10
627.4280681440681
 20
15.99776907472285
 30
0.0
 40
63.00000000000107
 50
86.93302040358232
 51
104.320518645639
  0
ARC
  5
B3
  8
HILFSLINIEN
  6
VOLLINIE
 62
    18
 10
627.428068144068
 20
15.99776907472475
 30
0.0
 40
59.99999999999917
 50
86.9330204035821
 51
104.3205186456394
  0
ARC
  5
B4
  8
HILFSLINIEN
  6
VOLLINIE
 62
    18
 10
630.905784763812
 20
80.904667684292
 30
0.0
 40
1.999999999999998
 50
266.9330204035816
 51
88.7647798626079
  0
ARC
  5
B5
  8
HILFSLINIEN
  6
VOLLINIE
 62
    18
 10
555.9928028989684
 20
107.1947543723466
 30
0.0
 40
20.00000000000024
 50
199.4751441626155
 51
249.8158705738689
  0
ARC
  5
B6
  8
HILFSLINIEN
  6
VOLLINIE
 62
    18
 10
504.7303112953769
 20
83.4673645291757
 30
0.0
 40
35.59999999999783
 50
351.7390192411602
 51
29.36684962477026
  0
LINE
  5
B7
  8
HILFSLINIEN
  6
VOLLINIE
 62
    18
 10
573.4928028989683
 20
82.85777756260687
 30
0.0
 11
567.9870727677119
 21
92.39398188270582
 31
0.0
  0
ARC
  5
B8
  8
HILFSLINIEN
  6
VOLLINIE
 62
    18
 10
546.6089258824716
 20
82.63995756938127
 30
0.0
 40
3.286787439617684
 50
69.08511128091823
 51
251.3856607263709
  0
ARC
  5
B9
  8
HILFSLINIEN
  6
VOLLINIE
 62
    18
 10
555.9928028991017
 20
107.1947543727086
 30
0.0
 40
23.00000000038592
 50
249.0851112809287
 51
249.8158705738687
  0
LINE
  5
BA
  8
HILFSLINIEN
  6
VOLLINIE
 62
    18
 10
536.8734739682749
 20
100.5360017564287
 30
0.0
 11
555.5201841614827
 21
99.88484428799211
 31
0.0
  0
ARC
  5
BB
  8
HILFSLINIEN
  6
VOLLINIE
 62
    18
 10
554.996691710945
 20
84.89398188270542
 30
0.0
 40
15.0000000000004
 50
30.00000000000078
 51
87.99999999999945
  0
CIRCLE
  5
BC
  8
HILFSLINIEN
  6
VOLLINIE
 62
    18
 10
556.958514315613
 20
92.39398188270572
 30
0.0
 40
2.499999999999986
  0
CIRCLE
  5
BD
  8
HILFSLINIEN
  6
VOLLINIE
 62
    18
 10
524.405784763812
 20
105.404667684292
 30
0.0
 40
3.500000000000014
  0
ARC
  5
BE
  8
HILFSLINIEN
  6
VOLLINIE
 62
    18
 10
627.1333117880424
 20
304.8640013811536
 30
0.0
 40
180.0000000000077
 50
260.8458136286579
 51
271.2352201373924
  0
ARC
  5
BF
  8
HILFSLINIEN
  6
VOLLINIE
 62
    18
 10
627.1333117880422
 20
304.8640013811515
 30
0.0
 40
177.0000000000056
 50
260.8458136286578
 51
271.2352201373925
  0
ARC
  5
C0
  8
HILFSLINIEN
  6
VOLLINIE
 62
    18
 10
582.9057847638119
 20
20.40466768429239
 30
0.0
 40
119.9999999999996
 50
75.67948135436072
 51
114.1251562238952
  0
ARC
  5
C1
  8
HILFSLINIEN
  6
VOLLINIE
 62
    18
 10
582.905784763812
 20
20.40466768429187
 30
0.0
 40
117.0000000000001
 50
75.6794813543608
 51
108.6143392736277
  0
ARC
  5
C2
  8
HILFSLINIEN
  6
VOLLINIE
 62
    18
 10
630.905784763812
 20
129.904667684292
 30
0.0
 40
2.000000000000006
 50
271.2352201373921
 51
93.06697959641842
  0
ARC
  5
C3
  8
HILFSLINIEN
  6
VOLLINIE
 62
    18
 10
627.4280681440683
 20
194.811566293862
 30
0.0
 40
60.00000000000189
 50
255.6794813543609
 51
273.0669795964175
  0
ARC
  5
C4
  8
HILFSLINIEN
  6
VOLLINIE
 62
    18
 10
627.4280681440683
 20
194.8115662938642
 30
0.0
 40
63.00000000000411
 50
255.6794813543615
 51
273.0669795964174
  0
ARC
  5
C5
  8
HILFSLINIEN
  6
VOLLINIE
 62
    18
 10
630.9057847638121
 20
129.904667684292
 30
0.0
 40
5.000000000000009
 50
271.2352201373908
 51
93.06697959641905
  0
ARC
  5
C6
  8
HILFSLINIEN
  6
VOLLINIE
 62
    18
 10
529.7707275922327
 20
139.0497927395295
 30
0.0
 40
9.999999999999783
 50
254.1556920148975
 51
294.1251562239137
  0
LINE
  5
C7
  8
HILFSLINIEN
  6
VOLLINIE
 62
    18
 10
573.4928028989683
 20
127.9515578059771
 30
0.0
 11
567.9870727677119
 21
118.4153534858782
 31
0.0
  0
ARC
  5
C8
  8
HILFSLINIEN
  6
VOLLINIE
 62
    18
 10
582.9057847638119
 20
30.40466768429295
 30
0.0
 40
97.99999999999905
 50
80.84581362865751
 51
110.1841294261308
  0
ARC
  5
C9
  8
HILFSLINIEN
  6
VOLLINIE
 62
    18
 10
582.9057847638119
 20
30.40466768429219
 30
0.0
 40
100.9999999999998
 50
80.84581362865758
 51
110.1841294261307
  0
ARC
  5
CA
  8
HILFSLINIEN
  6
VOLLINIE
 62
    18
 10
504.7303112953767
 20
127.3419708394083
 30
0.0
 40
35.59999999999803
 50
330.6331503752298
 51
8.260980758839665
  0
ARC
  5
CB
  8
HILFSLINIEN
  6
VOLLINIE
 62
    18
 10
546.6089258824716
 20
128.1693777992027
 30
0.0
 40
3.286787439617671
 50
108.6143392736293
 51
290.9148887190818
  0
ARC
  5
CC
  8
HILFSLINIEN
  6
VOLLINIE
 62
    18
 10
555.9928028982899
 20
103.614580998038
 30
0.0
 40
22.99999999807612
 50
110.1841294260922
 51
110.9148887191052
  0
LINE
  5
CD
  8
HILFSLINIEN
  6
VOLLINIE
 62
    18
 10
536.8734739682749
 20
110.2733336121553
 30
0.0
 11
555.5201841614827
 21
110.9244910805919
 31
0.0
  0
ARC
  5
CE
  8
HILFSLINIEN
  6
VOLLINIE
 62
    18
 10
554.996691710945
 20
125.9153534858786
 30
0.0
 40
15.00000000000041
 50
272.0000000000006
 51
329.9999999999992
  0
ARC
  5
CF
  8
HILFSLINIEN
  6
VOLLINIE
 62
    18
 10
555.9928028989684
 20
103.6145809962374
 30
0.0
 40
20.0000000000003
 50
110.1841294261311
 51
160.5248558373845
  0
LINE
  5
D0
  8
HILFSLINIEN
  6
VOLLINIE
 62
     6
 10
418.0641478712497
 20
-42.33979004910729
 30
0.0
 11
443.0641478712497
 21
-42.33979004910729
 31
0.0
  0
CIRCLE
  5
D1
  8
HILFSLINIEN
  6
VOLLINIE
 62
    18
 10
430.8178028989681
 20
-42.33979004910729
 30
0.0
 40
3.762499999999861
  0
CIRCLE
  5
D2
  8
HILFSLINIEN
  6
VOLLINIE
 62
    18
 10
430.8178028989681
 20
-42.33979004910729
 30
0.0
 40
8.75000000000017
  0
LINE
  5
D3
  8
HILFSLINIEN
  6
VOLLINIE
 62
    18
 10
438.0850238258425
 20
-36.83979004910736
 30
0.0
 11
516.0233764463178
 21
-36.83979004910728
 31
0.0
  0
LINE
  5
D4
  8
HILFSLINIEN
  6
VOLLINIE
 62
    18
 10
438.0850238258425
 20
-47.8397900491073
 30
0.0
 11
516.0233764463178
 21
-47.8397900491073
 31
0.0
  0
LINE
  5
D5
  8
HILFSLINIEN
  6
VOLLINIE
 62
    18
 10
506.6928028989682
 20
-47.83979004910739
 30
0.0
 11
506.6928028989682
 21
-36.83979004910728
 31
0.0
  0
LINE
  5
D6
  8
HILFSLINIEN
  6
VOLLINIE
 62
    18
 10
521.4928028989682
 20
-45.33979004910737
 30
0.0
 11
521.4928028989682
 21
-39.33979004910725
 31
0.0
  0
LINE
  5
D7
  8
HILFSLINIEN
  6
VOLLINIE
 62
    18
 10
513.6928028989681
 20
-47.8397900491073
 30
0.0
 11
513.6928028989681
 21
-36.83979004910736
 31
0.0
  0
ARC
  5
D8
  8
HILFSLINIEN
  6
VOLLINIE
 62
    18
 10
533.5178028989682
 20
-44.33979004910726
 30
0.0
 40
0.9999999999999805
 50
270.0
 51
0.0
  0
LINE
  5
D9
  8
HILFSLINIEN
  6
VOLLINIE
 62
    18
 10
528.4928028989682
 20
-45.33979004910724
 30
0.0
 11
528.4928028989682
 21
-39.33979004910725
 31
0.0
  0
LINE
  5
DA
  8
HILFSLINIEN
  6
VOLLINIE
 62
     6
 10
510.1928028989681
 20
-52.33979004910736
 30
0.0
 11
510.1928028989681
 21
-32.33979004910736
 31
0.0
  0
LINE
  5
DB
  8
HILFSLINIEN
  6
VOLLINIE
 62
    18
 10
518.0233764463178
 20
-45.33979004910724
 30
0.0
 11
533.5178028989682
 21
-45.33979004910724
 31
0.0
  0
LINE
  5
DC
  8
HILFSLINIEN
  6
VOLLINIE
 62
    18
 10
517.0233764463177
 20
-46.83979004910726
 30
0.0
 11
517.0233764463178
 21
-46.33979004910728
 31
0.0
  0
ARC
  5
DD
  8
HILFSLINIEN
  6
VOLLINIE
 62
    18
 10
516.0233764463177
 20
-46.83979004910732
 30
0.0
 40
0.9999999999999803
 50
270.0000000000065
 51
0.0
  0
ARC
  5
DE
  8
HILFSLINIEN
  6
VOLLINIE
 62
    18
 10
518.0233764463178
 20
-46.33979004910723
 30
0.0
 40
0.9999999999999927
 50
90.0
 51
180.0
  0
LINE
  5
DF
  8
HILFSLINIEN
  6
VOLLINIE
 62
    18
 10
518.0233764463178
 20
-39.33979004910725
 30
0.0
 11
533.5178028989682
 21
-39.33979004910725
 31
0.0
  0
ARC
  5
E0
  8
HILFSLINIEN
  6
VOLLINIE
 62
    18
 10
533.5178028989682
 20
-40.33979004910723
 30
0.0
 40
0.9999999999999806
 50
0.0
 51
90.0
  0
LINE
  5
E1
  8
HILFSLINIEN
  6
VOLLINIE
 62
    18
 10
534.5178028989682
 20
-44.33979004910729
 30
0.0
 11
534.5178028989682
 21
-40.33979004910729
 31
0.0
  0
LINE
  5
E2
  8
HILFSLINIEN
  6
VOLLINIE
 62
    18
 10
517.0233764463178
 20
-38.33979004910729
 30
0.0
 11
517.0233764463178
 21
-37.83979004910723
 31
0.0
  0
ARC
  5
E3
  8
HILFSLINIEN
  6
VOLLINIE
 62
    18
 10
516.0233764463178
 20
-37.83979004910726
 30
0.0
 40
0.9999999999999805
 50
0.0
 51
90.0
  0
ARC
  5
E4
  8
HILFSLINIEN
  6
VOLLINIE
 62
    18
 10
518.0233764463178
 20
-38.33979004910727
 30
0.0
 40
0.9999999999999805
 50
180.0
 51
270.0
  0
LINE
  5
E5
  8
HILFSLINIEN
  6
VOLLINIE
 62
     6
 10
430.8178028989681
 20
-55.05285793119361
 30
0.0
 11
430.8178028989681
 21
-29.62672216702096
 31
0.0
  0
ARC
  5
E6
  8
HILFSLINIEN
  6
VOLLINIE
 62
    18
 10
438.0850238258424
 20
-48.83979004910731
 30
0.0
 40
1.000000000000006
 50
89.99999999999675
 51
138.1896851042155
  0
ARC
  5
E7
  8
HILFSLINIEN
  6
VOLLINIE
 62
    18
 10
438.0850238258424
 20
-35.83979004910768
 30
0.0
 40
0.9999999999996803
 50
221.8103148957691
 51
270.0000000000065
  0
LINE
  5
E8
  8
HILFSLINIEN
  6
VOLLINIE
 62
    18
 10
517.4928028989682
 20
-39.33979004910725
 30
0.0
 11
536.8734739682749
 21
-39.33979004910725
 31
0.0
  0
LINE
  5
E9
  8
HILFSLINIEN
  6
VOLLINIE
 62
    18
 10
517.4928028989682
 20
-45.33979004910724
 30
0.0
 11
536.8734739682749
 21
-45.33979004910724
 31
0.0
  0
LINE
  5
EA
  8
HILFSLINIEN
  6
VOLLINIE
 62
    18
 10
517.4928028989683
 20
-48.68979004910729
 30
0.0
 11
536.8734739682749
 21
-48.68979004910729
 31
0.0
  0
LINE
  5
EB
  8
HILFSLINIEN
  6
VOLLINIE
 62
    18
 10
517.4928028989682
 20
-35.9897900491072
 30
0.0
 11
536.8734739682749
 21
-35.9897900491072
 31
0.0
  0
LINE
  5
EC
  8
HILFSLINIEN
  6
VOLLINIE
 62
    18
 10
536.8734739682749
 20
-48.68979004910729
 30
0.0
 11
631.23634771683
 21
-47.0891068010834
 31
0.0
  0
LINE
  5
ED
  8
HILFSLINIEN
  6
VOLLINIE
 62
    18
 10
536.8734739682749
 20
-35.9897900491072
 30
0.0
 11
631.23634771683
 21
-37.59047329713109
 31
0.0
  0
ARC
  5
EE
  8
HILFSLINIEN
  6
VOLLINIE
 62
    18
 10
631.155784763812
 20
-42.33979004910729
 30
0.0
 40
4.749999999999984
 50
270.9718186370986
 51
89.02818136290138
  0
LINE
  5
EF
  8
HILFSLINIEN
  6
VOLLINIE
 62
     6
 10
524.405784763812
 20
-52.33979004910727
 30
0.0
 11
524.405784763812
 21
-32.33979004910728
 31
0.0
  0
LINE
  5
F0
  8
HILFSLINIEN
  6
VOLLINIE
 62
     6
 10
524.9928028989682
 20
-52.33979004910729
 30
0.0
 11
524.9928028989682
 21
-32.33979004910729
 31
0.0
  0
LINE
  5
F1
  8
HILFSLINIEN
  6
VOLLINIE
 62
    18
 10
536.8734739682749
 20
-45.33979004910724
 30
0.0
 11
536.8734739682749
 21
-39.33979004910725
 31
0.0
  0
LINE
  5
F2
  8
HILFSLINIEN
  6
VOLLINIE
 62
    18
 10
527.9057847638119
 20
-48.68979004910729
 30
0.0
 11
527.9057847638119
 21
-45.33979004910724
 31
0.0
  0
LINE
  5
F3
  8
HILFSLINIEN
  6
VOLLINIE
 62
    18
 10
528.4928028989682
 20
-48.68979004910729
 30
0.0
 11
528.4928028989682
 21
-45.33979004910724
 31
0.0
  0
LINE
  5
F4
  8
HILFSLINIEN
  6
VOLLINIE
 62
    18
 10
527.9057847638119
 20
-39.33979004910725
 30
0.0
 11
527.9057847638119
 21
-35.9897900491072
 31
0.0
  0
LINE
  5
F5
  8
HILFSLINIEN
  6
VOLLINIE
 62
    18
 10
528.4928028989682
 20
-39.33979004910725
 30
0.0
 11
528.4928028989682
 21
-35.9897900491072
 31
0.0
  0
LINE
  5
F6
  8
HILFSLINIEN
  6
VOLLINIE
 62
    18
 10
520.9057847638119
 20
-48.68979004910729
 30
0.0
 11
520.9057847638119
 21
-45.33979004910724
 31
0.0
  0
LINE
  5
F7
  8
HILFSLINIEN
  6
VOLLINIE
 62
    18
 10
521.4928028989682
 20
-48.68979004910729
 30
0.0
 11
521.4928028989682
 21
-45.33979004910724
 31
0.0
  0
LINE
  5
F8
  8
HILFSLINIEN
  6
VOLLINIE
 62
    18
 10
519.0378422676362
 20
-48.68979004910729
 30
0.0
 11
519.0378422676362
 21
-45.33979004910724
 31
0.0
  0
LINE
  5
F9
  8
HILFSLINIEN
  6
VOLLINIE
 62
    18
 10
517.4928028989682
 20
-48.68979004910738
 30
0.0
 11
517.4928028989682
 21
-45.33979004910724
 31
0.0
  0
LINE
  5
FA
  8
HILFSLINIEN
  6
VOLLINIE
 62
    18
 10
521.4928028989682
 20
-39.33979004910725
 30
0.0
 11
521.4928028989682
 21
-35.9897900491072
 31
0.0
  0
LINE
  5
FB
  8
HILFSLINIEN
  6
VOLLINIE
 62
    18
 10
520.905784763812
 20
-39.33979004910725
 30
0.0
 11
520.905784763812
 21
-35.9897900491072
 31
0.0
  0
LINE
  5
FC
  8
HILFSLINIEN
  6
VOLLINIE
 62
    18
 10
519.0378422676362
 20
-39.33979004910725
 30
0.0
 11
519.0378422676362
 21
-35.9897900491072
 31
0.0
  0
LINE
  5
FD
  8
HILFSLINIEN
  6
VOLLINIE
 62
    18
 10
517.4928028989682
 20
-39.33979004910716
 30
0.0
 11
517.4928028989682
 21
-35.9897900491072
 31
0.0
  0
LINE
  5
FE
  8
HILFSLINIEN
  6
STRICHLINIE_LANG
 62
    18
 10
444.5678028989682
 20
-44.73979004910724
 30
0.0
 11
506.4827298676391
 21
-44.73979004910738
 31
0.0
  0
LINE
  5
FF
  8
HILFSLINIEN
  6
STRICHLINIE_LANG
 62
    18
 10
444.5678028989682
 20
-39.93979004910729
 30
0.0
 11
506.4827298676391
 21
-39.93979004910729
 31
0.0
  0
LINE
  5
100
  8
HILFSLINIEN
  6
STRICHLINIE_LANG
 62
    18
 10
545.3221384428539
 20
-44.73979004910738
 30
0.0
 11
630.905784763812
 21
-44.73979004910738
 31
0.0
  0
LINE
  5
101
  8
HILFSLINIEN
  6
STRICHLINIE_LANG
 62
    18
 10
545.3221384428539
 20
-39.93979004910729
 30
0.0
 11
630.905784763812
 21
-39.93979004910729
 31
0.0
  0
ARC
  5
102
  8
HILFSLINIEN
  6
STRICHLINIE_LANG
 62
    18
 10
444.5678028989681
 20
-46.7397900491072
 30
0.0
 40
1.999999999999961
 50
89.99999999999837
 51
180.0
  0
ARC
  5
103
  8
HILFSLINIEN
  6
STRICHLINIE_LANG
 62
    18
 10
444.5678028989682
 20
-37.93979004910732
 30
0.0
 40
1.999999999999973
 50
180.0
 51
270.0
  0
ARC
  5
104
  8
HILFSLINIEN
  6
STRICHLINIE_LANG
 62
    18
 10
506.4827298676392
 20
-46.73979004910721
 30
0.0
 40
1.999999999999961
 50
0.0
 51
90.00000000000163
  0
ARC
  5
105
  8
HILFSLINIEN
  6
STRICHLINIE_LANG
 62
    18
 10
506.4827298676391
 20
-37.93979004910732
 30
0.0
 40
1.999999999999973
 50
270.0
 51
0.0
  0
ARC
  5
106
  8
HILFSLINIEN
  6
STRICHLINIE_LANG
 62
    18
 10
545.3221384428539
 20
-46.73979004910734
 30
0.0
 40
1.999999999999961
 50
90.0
 51
180.0
  0
ARC
  5
107
  8
HILFSLINIEN
  6
STRICHLINIE_LANG
 62
    18
 10
545.3221384428539
 20
-37.93979004910732
 30
0.0
 40
1.999999999999973
 50
180.0
 51
270.0
  0
ARC
  5
108
  8
HILFSLINIEN
  6
STRICHLINIE_LANG
 62
    18
 10
630.905784763812
 20
-46.73979004910734
 30
0.0
 40
1.999999999999961
 50
0.0
 51
90.0
  0
ARC
  5
109
  8
HILFSLINIEN
  6
STRICHLINIE_LANG
 62
    18
 10
630.905784763812
 20
-37.93979004910732
 30
0.0
 40
1.999999999999973
 50
270.0
 51
0.0
  0
SOLID
  5
10A
  8
HILFSLINIEN
  6
VOLLINIE
 62
     3
 10
633.405784763812
 20
202.5069295631087
 30
0.0
 11
633.405784763812
 21
203.340262896442
 31
0.0
 12
633.405784763812
 22
202.5069295631087
 32
0.0
 13
635.905784763812
 23
202.9235962297753
 33
0.0
  0
POLYLINE
  5
10B
  8
HILFSLINIEN
  6
VOLLINIE
 62
     3
 10
0.0
 20
0.0
 30
0.0
 66
     1
 70
     8
  0
VERTEX
  5
10C
  8
HILFSLINIEN
  6
VOLLINIE
 62
     3
 10
633.40576171875
 20
202.5069274902344
 30
0.0
 70
    32
  0
VERTEX
  5
10D
  8
HILFSLINIEN
  6
VOLLINIE
 62
     3
 10
633.40576171875
 20
203.3402557373047
 30
0.0
 70
    32
  0
VERTEX
  5
10E
  8
HILFSLINIEN
  6
VOLLINIE
 62
     3
 10
635.90576171875
 20
202.9235992431641
 30
0.0
 70
    32
  0
VERTEX
  5
10F
  8
HILFSLINIEN
  6
VOLLINIE
 62
     3
 10
633.40576171875
 20
202.5069274902344
 30
0.0
 70
    32
  0
SEQEND
  5
110
  8
HILFSLINIEN
  6
VOLLINIE
 62
     3
  0
ARC
  5
111
  8
HILFSLINIEN
  6
VOLLINIE
 62
    18
 10
513.8789906326649
 20
150.4504841801106
 30
0.0
 40
10.00000000000005
 50
318.6383952813294
 51
8.717549660296122
  0
ARC
  5
112
  8
HILFSLINIEN
  6
VOLLINIE
 62
    18
 10
502.6678028989682
 20
125.6103242117161
 30
0.0
 40
2.000000000000012
 50
180.0
 51
318.6383952813297
  0
ARC
  5
113
  8
HILFSLINIEN
  6
VOLLINIE
 62
    18
 10
510.1928028989682
 20
105.404667684292
 30
0.0
 40
9.525000000000034
 50
0.0
 51
180.0
  0
LINE
  5
114
  8
LAYER1
  6
VOLLINIE
 62
    18
 10
519.59844973516
 20
103.9015267751174
 30
0.0
 11
519.7178028989682
 21
105.404667684292
 31
0.0
  0
ARC
  5
115
  8
HILFSLINIEN
  6
VOLLINIE
 62
    18
 10
524.9928028989681
 20
88.59466768429206
 30
0.0
 40
9.525000000000148
 50
304.7816589023079
 51
91.8030170346624
  0
ARC
  5
116
  8
HILFSLINIEN
  6
VOLLINIE
 62
    18
 10
529.7707275922327
 20
71.75954262905401
 30
0.0
 40
10.00000000000025
 50
65.87484377608607
 51
80.20001299460367
  0
ARC
  5
117
  8
HILFSLINIEN
  6
VOLLINIE
 62
    18
 10
524.9928028989681
 20
122.214667684292
 30
0.0
 40
9.52499999999998
 50
47.13159669890289
 51
61.97152129873332
  0
ARC
  5
118
  8
HILFSLINIEN
  6
VOLLINIE
 62
    18
 10
524.9928028989682
 20
122.214667684292
 30
0.0
 40
7.50000000000003
 50
74.15569201489718
 51
206.5294220262385
  0
CIRCLE
  5
119
  8
LAYER1
  6
VOLLINIE
 62
    18
 10
535.7556291997792
 20
105.404667684292
 30
0.0
 40
3.500000000000014
  0
LINE
  5
11A
  8
LAYER1
  6
VOLLINIE
 62
    18
 10
524.405784763812
 20
109.654667684292
 30
0.0
 11
535.7556291997792
 21
109.654667684292
 31
0.0
  0
LINE
  5
11B
  8
LAYER1
  6
VOLLINIE
 62
    18
 10
524.405784763812
 20
101.154667684292
 30
0.0
 11
535.7556291997792
 21
101.154667684292
 31
0.0
  0
ARC
  5
11C
  8
LAYER1
  6
VOLLINIE
 62
    18
 10
524.405784763812
 20
105.404667684292
 30
0.0
 40
4.249999999999986
 50
90.0
 51
270.0
  0
ARC
  5
11D
  8
LAYER1
  6
VOLLINIE
 62
    18
 10
535.7556291997792
 20
105.404667684292
 30
0.0
 40
4.249999999999986
 50
270.0
 51
90.0
  0
LINE
  5
11E
  8
LAYER1
  6
VOLLINIE
 62
    18
 10
537.9926242523338
 20
109.0
 30
0.0
 11
637.4017558874973
 21
109.0
 31
0.0
  0
LINE
  5
11F
  8
LAYER1
  6
VOLLINIE
 62
    18
 10
538.2993937249539
 20
102.0
 30
0.0
 11
637.4017558874973
 21
102.0
 31
0.0
  0
LINE
  5
120
  8
LAYER1
  6
VOLLINIE
 62
     6
 10
524.423957195566
 20
99.90469770594447
 30
0.0
 11
524.423957195566
 21
110.9046376626395
 31
0.0
  0
LINE
  5
121
  8
LAYER1
  6
VOLLINIE
 62
     6
 10
535.7738016315335
 20
99.90469770594447
 30
0.0
 11
535.7738016315335
 21
110.9046376626395
 31
0.0
  0
LINE
  5
122
  8
LAYER1
  6
VOLLINIE
 62
     6
 10
530.2556291997794
 20
105.404667684292
 30
0.0
 11
541.2556291997794
 21
105.404667684292
 31
0.0
  0
ARC
  5
123
  8
HILFSLINIEN
  6
VOLLINIE
 62
    18
 10
536.9432729616798
 20
102.5347834104668
 30
0.0
 40
1.999999999999988
 50
223.6346894068585
 51
268.0000000000029
  0
ARC
  5
124
  8
HILFSLINIEN
  6
VOLLINIE
 62
    18
 10
536.9432729616798
 20
108.2745519581172
 30
0.0
 40
1.999999999999974
 50
91.99999999999717
 51
136.3653105931418
  0
ARC
  5
125
  8
HILFSLINIEN
  6
VOLLINIE
 62
    18
 10
504.8619377882991
 20
112.1648781394285
 30
0.0
 40
14.99999999999993
 50
344.4677943521351
 51
26.52942202623871
  0
LINE
  5
126
  8
LAYER1
  6
VOLLINIE
 62
     6
 10
518.9057847638119
 20
105.404667684292
 30
0.0
 11
529.905784763812
 21
105.404667684292
 31
0.0
  0
LINE
  5
127
  8
LAYER1
  6
VOLLINIE
 62
     6
 10
525.0109753307223
 20
116.7146977059444
 30
0.0
 11
525.0109753307223
 21
127.7146376626395
 31
0.0
  0
LINE
  5
128
  8
LAYER1
  6
VOLLINIE
 62
     6
 10
519.4928028989682
 20
122.214667684292
 30
0.0
 11
530.4928028989682
 21
122.214667684292
 31
0.0
  0
LINE
  5
129
  8
LAYER1
  6
VOLLINIE
 62
     6
 10
510.2109753307223
 20
99.90469770594447
 30
0.0
 11
510.2109753307223
 21
110.9046376626395
 31
0.0
  0
LINE
  5
12A
  8
LAYER1
  6
VOLLINIE
 62
     6
 10
504.6928028989682
 20
105.404667684292
 30
0.0
 11
515.6928028989682
 21
105.404667684292
 31
0.0
  0
LINE
  5
12B
  8
LAYER1
  6
VOLLINIE
 62
     6
 10
525.0109753307222
 20
83.09469770594454
 30
0.0
 11
525.0109753307222
 21
94.0946376626396
 31
0.0
  0
LINE
  5
12C
  8
LAYER1
  6
VOLLINIE
 62
     6
 10
519.4928028989681
 20
88.59466768429206
 30
0.0
 11
530.4928028989681
 21
88.59466768429206
 31
0.0
  0
LINE
  5
12D
  8
LAYER1
  6
VOLLINIE
 62
    18
 10
637.4017558874973
 20
109.0
 30
0.0
 11
637.4017558874973
 21
102.0
 31
0.0
  0
LINE
  5
12E
  8
LAYER1
  6
VOLLINIE
 62
     6
 10
450.9444876056589
 20
191.3631075544098
 30
0.0
 11
455.6332611475302
 21
202.4091657958391
 31
0.0
  0
LINE
  5
12F
  8
LAYER1
  6
VOLLINIE
 62
     6
 10
467.0029657607074
 20
184.4066796656791
 30
0.0
 11
472.1198608072186
 21
196.4613289666744
 31
0.0
  0
LINE
  5
130
  8
LAYER1
  6
VOLLINIE
 62
     6
 10
456.2684409106234
 20
181.5116397225301
 30
0.0
 11
466.2032236308801
 21
204.9165210979917
 31
0.0
  0
LINE
  5
131
  8
LAYER1
  6
VOLLINIE
 62
     6
 10
453.833538451822
 20
187.964057472654
 30
0.0
 11
460.0852365076506
 21
202.6921351278931
 31
0.0
  0
LINE
  5
132
  8
LAYER1
  6
VOLLINIE
 62
     6
 10
462.6013471809566
 20
184.2423434737938
 30
0.0
 11
468.853045236785
 21
198.9704211290328
 31
0.0
  0
LINE
  5
133
  8
LAYER1
  6
VOLLINIE
 62
     6
 10
461.680842327504
 20
184.633074602283
 30
0.0
 11
467.9325403833325
 21
199.361152257522
 31
0.0
  0
LINE
  5
134
  8
LAYER1
  6
VOLLINIE
 62
     6
 10
454.7540433052745
 20
187.5733263441647
 30
0.0
 11
461.005741361103
 21
202.3014039994038
 31
0.0
  0
LINE
  5
135
  8
LAYER1
  6
VOLLINIE
 62
     6
 10
452.0040350555853
 20
188.7406355905265
 30
0.0
 11
464.4308505771933
 21
183.4657653559211
 31
0.0
  0
ARC
  5
136
  8
LAYER1
  6
VOLLINIE
 62
     6
 10
467.7428638780518
 20
182.2089836860032
 30
0.0
 40
1.999999999999873
 50
92.30707466597283
 51
129.245000985693
  0
ARC
  5
137
  8
LAYER1
  6
VOLLINIE
 62
     6
 10
465.2123128341719
 20
185.3067750628252
 30
0.0
 40
1.999999999999361
 50
246.9999999999885
 51
309.2450009857054
  0
ARC
  5
138
  8
LAYER1
  6
VOLLINIE
 62
     6
 10
452.7854973125638
 20
190.5816452974314
 30
0.0
 40
1.999999999999974
 50
156.9999999999995
 51
247.0000000000013
  0
ARC
  5
139
  8
LAYER1
  6
VOLLINIE
 62
     6
 10
458.8244445096737
 20
47.15534595958391
 30
0.0
 40
146.9999999999972
 50
65.25594608955033
 51
83.16527382385058
  0
ARC
  5
13A
  8
LAYER1
  6
VOLLINIE
 62
     6
 10
470.7620015508746
 20
107.2697762728465
 30
0.0
 40
79.99999999999706
 50
55.36870691132235
 51
86.41011887280483
  0
ARC
  5
13B
  8
LAYER1
  6
VOLLINIE
 62
     6
 10
458.8244445096718
 20
47.1553459595757
 30
0.0
 40
150.0000000000056
 50
65.25594608955102
 51
84.5359112436419
  0
LINE
  5
13C
  8
LAYER1
  6
VOLLINIE
 62
     6
 10
458.2557331114137
 20
203.4687132457655
 30
0.0
 11
470.6825486330218
 21
198.1938430111603
 31
0.0
  0
ARC
  5
13D
  8
LAYER1
  6
VOLLINIE
 62
     6
 10
469.9010863760442
 20
196.3528333042566
 30
0.0
 40
1.999999999998474
 50
31.8676597149762
 51
67.00000000001278
  0
ARC
  5
13E
  8
LAYER1
  6
VOLLINIE
 62
     6
 10
475.9597746309759
 20
190.1194988559235
 30
0.0
 40
3.012609747468642
 50
83.1652738238478
 51
266.4101188728059
  0
ARC
  5
13F
  8
LAYER1
  6
VOLLINIE
 62
     6
 10
473.2981656818861
 20
198.4646695170837
 30
0.0
 40
1.99999999999988
 50
211.8676597149893
 51
264.5359112436445
  0
ARC
  5
140
  8
LAYER1
  6
VOLLINIE
 62
     6
 10
457.474270854435
 20
201.6277035388609
 30
0.0
 40
1.999999999999865
 50
66.99999999999457
 51
157.0000000000019
  0
ARC
  5
141
  8
LAYER1
  6
VOLLINIE
 62
     6
 10
453.8405754767822
 20
143.9502880070631
 30
0.0
 40
97.00000000000065
 50
275.7150115206224
 51
311.1544778398318
  0
CIRCLE
  5
142
  8
LAYER1
  6
VOLLINIE
 62
     6
 10
510.1928028989682
 20
105.404667684292
 30
0.0
 40
3.500000000000014
  0
LINE
  5
143
  8
LAYER1
  6
VOLLINIE
 62
     6
 10
443.8627275810889
 20
58.52372474316914
 30
0.0
 11
453.7975103013455
 21
35.11884336770751
 31
0.0
  0
ARC
  5
144
  8
LAYER1
  6
VOLLINIE
 62
     6
 10
456.898320661275
 20
120.8051153406437
 30
0.0
 40
67.99999999999751
 50
275.1182672110693
 51
305.2914674810994
  0
LINE
  5
145
  8
LAYER1
  6
VOLLINIE
 62
     6
 10
445.8500197818792
 20
36.56665121993365
 30
0.0
 11
458.2768353034874
 21
41.84152145453891
 31
0.0
  0
LINE
  5
146
  8
LAYER1
  6
VOLLINIE
 62
     6
 10
439.5983217260507
 20
51.29472887517273
 30
0.0
 11
452.0251372476588
 21
56.569599109778
 31
0.0
  0
ARC
  5
147
  8
LAYER1
  6
VOLLINIE
 62
     6
 10
463.2176074986959
 20
50.25294591849186
 30
0.0
 40
2.834610158495032
 50
95.11826721107137
 51
275.7150115206212
  0
LINE
  5
148
  8
LAYER1
  6
VOLLINIE
 62
     6
 10
454.6476092115422
 20
55.51005165985167
 30
0.0
 11
459.4867245917384
 21
44.10981024292273
 31
0.0
  0
ARC
  5
149
  8
LAYER1
  6
VOLLINIE
 62
     6
 10
455.3395714188352
 20
57.82440161970392
 30
0.0
 40
1.999999999999375
 50
230.7102090490356
 51
268.5822401979482
  0
ARC
  5
14A
  8
LAYER1
  6
VOLLINIE
 62
     6
 10
452.8065995046374
 20
54.72858940287315
 30
0.0
 40
1.999999999999976
 50
50.71020904903739
 51
113.0000000000006
  0
ARC
  5
14B
  8
LAYER1
  6
VOLLINIE
 62
     6
 10
461.2173831077769
 20
42.21738915337171
 30
0.0
 40
1.999999999999915
 50
94.14734570231148
 51
158.5132838752846
  0
ARC
  5
14C
  8
LAYER1
  6
VOLLINIE
 62
     6
 10
457.4953730465082
 20
43.68253116144425
 30
0.0
 40
2.000000000000696
 50
293.0000000000061
 51
338.5132838752754
  0
LINE
  5
14D
  8
LAYER1
  6
VOLLINIE
 62
     6
 10
442.34832997574
 20
52.46203812153448
 30
0.0
 11
448.6000280315686
 21
37.73396046629539
 31
0.0
  0
LINE
  5
14E
  8
LAYER1
  6
VOLLINIE
 62
     6
 10
449.2751289979697
 20
55.40228986341625
 30
0.0
 11
455.5268270537981
 21
40.67421220817717
 31
0.0
  0
LINE
  5
14F
  8
LAYER1
  6
VOLLINIE
 62
     6
 10
450.195633851422
 20
55.79302099190551
 30
0.0
 11
456.4473319072505
 21
41.06494333666642
 31
0.0
  0
LINE
  5
150
  8
LAYER1
  6
VOLLINIE
 62
     6
 10
441.4278251222876
 20
52.07130699304522
 30
0.0
 11
447.6795231781161
 21
37.34322933780614
 31
0.0
  0
LINE
  5
151
  8
LAYER1
  6
VOLLINIE
 62
     6
 10
438.5387742761246
 20
48.67225691128937
 30
0.0
 11
443.2275478179959
 21
37.62619866986006
 31
0.0
  0
ARC
  5
152
  8
LAYER1
  6
VOLLINIE
 62
     6
 10
440.3797839830294
 20
49.4537191682679
 30
0.0
 40
2.000000000000163
 50
113.0000000000002
 51
202.9999999999946
  0
ARC
  5
153
  8
LAYER1
  6
VOLLINIE
 62
     6
 10
445.0685575249007
 20
38.40766092683867
 30
0.0
 40
2.000000000000113
 50
203.0000000000007
 51
292.9999999999971
  0
ARC
  5
154
  8
LAYER1
  6
VOLLINIE
 62
     6
 10
523.9512691489073
 20
-29.67322801111741
 30
0.0
 40
62.99999999999579
 50
29.3215204035814
 51
46.70901864563957
  0
ARC
  5
155
  8
LAYER1
  6
VOLLINIE
 62
     6
 10
430.8612025625673
 20
-88.37471736965016
 30
0.0
 40
177.0000000000344
 50
31.15327986260848
 51
41.54268637134144
  0
ARC
  5
156
  8
LAYER1
  6
VOLLINIE
 62
     6
 10
430.8612025625978
 20
-88.37471736962493
 30
0.0
 40
179.9999999999952
 50
31.15327986260665
 51
41.54268637134186
  0
ARC
  5
157
  8
LAYER1
  6
VOLLINIE
 62
     6
 10
523.9512691488998
 20
-29.67322801112445
 30
0.0
 40
60.00000000000612
 50
29.32152040358356
 51
46.70901864563893
  0
ARC
  5
158
  8
LAYER1
  6
VOLLINIE
 62
     6
 10
580.6238200152594
 20
2.157919915091491
 30
0.0
 40
5.000000000000084
 50
209.3215204035822
 51
31.15327986260607
  0
ARC
  5
159
  8
LAYER1
  6
VOLLINIE
 62
     6
 10
580.6238200152595
 20
2.157919915091586
 30
0.0
 40
2.000000000000083
 50
209.3215204035823
 51
31.15327986260192
  0
LINE
  5
15A
  8
LAYER1
  6
VOLLINIE
 62
     6
 10
551.5194114355306
 20
51.68567502304926
 30
0.0
 11
556.6229358487678
 21
61.4430463737969
 31
0.0
  0
ARC
  5
15B
  8
LAYER1
  6
VOLLINIE
 62
     6
 10
647.3779512259433
 20
109.4640373940493
 30
0.0
 40
117.0000000000007
 50
133.2909813543611
 51
166.2258392736278
  0
ARC
  5
15C
  8
LAYER1
  6
VOLLINIE
 62
     6
 10
523.9512691489077
 20
240.4825633797011
 30
0.0
 40
62.99999999999532
 50
313.2909813543604
 51
330.6784795964186
  0
ARC
  5
15D
  8
LAYER1
  6
VOLLINIE
 62
     6
 10
430.8612025625683
 20
299.1840527382335
 30
0.0
 40
177.0000000000332
 50
318.4573136286585
 51
328.8467201373915
  0
ARC
  5
15E
  8
LAYER1
  6
VOLLINIE
 62
     6
 10
430.8612025626024
 20
299.1840527382058
 30
0.0
 40
179.9999999999897
 50
318.4573136286579
 51
328.8467201373934
  0
ARC
  5
15F
  8
LAYER1
  6
VOLLINIE
 62
     6
 10
523.9512691488999
 20
240.4825633797083
 30
0.0
 40
60.00000000000595
 50
313.2909813543611
 51
330.6784795964165
  0
ARC
  5
160
  8
LAYER1
  6
VOLLINIE
 62
     6
 10
580.6238200152594
 20
208.6514154534925
 30
0.0
 40
5.000000000000087
 50
328.8467201373937
 51
150.678479596418
  0
ARC
  5
161
  8
LAYER1
  6
VOLLINIE
 62
     6
 10
580.6238200152595
 20
208.6514154534924
 30
0.0
 40
2.000000000000086
 50
328.8467201373976
 51
150.678479596418
  0
LINE
  5
162
  8
LAYER1
  6
VOLLINIE
 62
     6
 10
551.5194114355306
 20
159.1236603455348
 30
0.0
 11
556.6229358487678
 21
149.3662889947871
 31
0.0
  0
LINE
  5
163
  8
LAYER1
  6
VOLLINIE
 62
     6
 10
599.4598621686216
 20
184.6929529913124
 30
0.0
 11
604.758354035253
 21
180.1184602391876
 31
0.0
  0
CIRCLE
  5
164
  8
LAYER1
  6
VOLLINIE
 62
    18
 10
510.1928028989682
 20
105.404667684292
 30
0.0
 40
3.500000000000014
  0
LINE
  5
165
  8
LAYER1
  6
VOLLINIE
 62
     6
 10
510.2109753307223
 20
99.90469770594447
 30
0.0
 11
510.2109753307223
 21
110.9046376626395
 31
0.0
  0
LINE
  5
166
  8
LAYER1
  6
VOLLINIE
 62
     6
 10
504.6928028989682
 20
105.404667684292
 30
0.0
 11
515.6928028989682
 21
105.404667684292
 31
0.0
  0
ARC
  5
167
  8
LAYER1
  6
VOLLINIE
 62
     6
 10
470.7620015508737
 20
107.269776272844
 30
0.0
 40
76.99999999999969
 50
74.93860993620218
 51
92.30707466613998
  0
ARC
  5
168
  8
LAYER1
  6
VOLLINIE
 62
     6
 10
505.9961818488528
 20
158.2849949701057
 30
0.0
 40
15.00000000000015
 50
16.08386655670598
 51
55.36870691132253
  0
ARC
  5
169
  8
LAYER1
  6
VOLLINIE
 62
     6
 10
505.9961818488533
 20
158.284994970106
 30
0.0
 40
17.99999999999968
 50
345.5972299436946
 51
55.36870691132321
  0
ARC
  5
16A
  8
LAYER1
  6
VOLLINIE
 62
     6
 10
506.9594757720118
 20
151.5968069095969
 30
0.0
 40
34.99999999999991
 50
19.1534100575121
 51
65.25594608955045
  0
ARC
  5
16B
  8
LAYER1
  6
VOLLINIE
 62
     6
 10
506.959475772012
 20
151.5968069095969
 30
0.0
 40
32.00000000000001
 50
13.40851055860509
 51
65.25594608955075
  0
ARC
  5
16C
  8
LAYER1
  6
VOLLINIE
 62
     6
 10
529.8463000533219
 20
146.51051295222
 30
0.0
 40
8.55480620885333
 50
228.411310191874
 51
276.5564090844169
  0
ARC
  5
16D
  8
LAYER1
  6
VOLLINIE
 62
     6
 10
456.8983206612742
 20
120.8051153406465
 30
0.0
 40
65.00000000000031
 50
268.5822401978759
 51
299.2143061300436
  0
ARC
  5
16E
  8
LAYER1
  6
VOLLINIE
 62
     6
 10
480.0077637940285
 20
88.15616990447742
 30
0.0
 40
28.00000000000098
 50
305.2914674810992
 51
306.5223243461647
  0
ARC
  5
16F
  8
LAYER1
  6
VOLLINIE
 62
     6
 10
513.0121690841638
 20
76.25066691061978
 30
0.0
 40
7.086062333812924
 50
311.1544778398322
 51
344.4528682913532
  0
ARC
  5
170
  8
LAYER1
  6
VOLLINIE
 62
     6
 10
453.8405754767826
 20
143.9502880070627
 30
0.0
 40
100.0000000000003
 50
274.1473457023127
 51
321.367232145251
  0
ARC
  5
171
  8
LAYER1
  6
VOLLINIE
 62
     6
 10
638.933596667698
 20
114.8206105611582
 30
0.0
 40
98.00000000000314
 50
138.4573136286583
 51
164.7763376812801
  0
ARC
  5
172
  8
LAYER1
  6
VOLLINIE
 62
     6
 10
638.9335966676931
 20
114.8206105611606
 30
0.0
 40
100.9999999999978
 50
138.4573136286575
 51
166.0934877762417
  0
ARC
  5
173
  8
LAYER1
  6
VOLLINIE
 62
     6
 10
536.9349310848181
 20
136.5386382758698
 30
0.0
 40
3.28678743961758
 50
166.2258392736241
 51
188.2148004094846
  0
ARC
  5
174
  8
LAYER1
  6
VOLLINIE
 62
     6
 10
647.3779512259435
 20
109.4640373940488
 30
0.0
 40
120.0000000000011
 50
133.2909813543611
 51
167.9405054292204
  0
ARC
  5
175
  8
LAYER1
  6
VOLLINIE
 62
     6
 10
543.3312772701618
 20
142.4141805211116
 30
0.0
 40
14.99999999999915
 50
14.64272612450329
 51
27.61150000000194
  0
LINE
  5
176
  8
LAYER1
  6
VOLLINIE
 62
     6
 10
573.1046244916395
 20
143.4549354237887
 30
0.0
 11
604.758354035253
 21
180.1184602391876
 31
0.0
  0
LINE
  5
177
  8
LAYER1
  6
VOLLINIE
 62
     6
 10
561.8114364278533
 20
141.0859590822531
 30
0.0
 11
599.4598621686216
 21
184.6929529913124
 31
0.0
  0
ARC
  5
178
  8
LAYER1
  6
VOLLINIE
 62
     6
 10
647.3779512259438
 20
101.3452979745353
 30
0.0
 40
120.0000000000014
 50
193.9182579307401
 51
226.709018645639
  0
ARC
  5
179
  8
LAYER1
  6
VOLLINIE
 62
     6
 10
638.9335966676931
 20
95.98872480742338
 30
0.0
 40
100.9999999999978
 50
194.8007108082718
 51
221.5426863713426
  0
ARC
  5
17A
  8
LAYER1
  6
VOLLINIE
 62
     6
 10
647.3779512259438
 20
101.3452979745351
 30
0.0
 40
117.0000000000013
 50
194.6489941288298
 51
226.7090186456389
  0
ARC
  5
17B
  8
LAYER1
  6
VOLLINIE
 62
     6
 10
638.9335966676983
 20
95.988724807426
 30
0.0
 40
98.00000000000354
 50
195.7079930896114
 51
221.5426863713416
  0
ARC
  5
17C
  8
LAYER1
  6
VOLLINIE
 62
     6
 10
543.3312772701619
 20
68.39515484747245
 30
0.0
 40
14.99999999999906
 50
332.3884999999978
 51
352.5511854213723
  0
ARC
  5
17D
  8
LAYER1
  6
VOLLINIE
 62
     6
 10
526.8351262221104
 20
78.5607203262175
 30
0.0
 40
1.999999999999742
 50
318.1455601654329
 51
28.80735876862461
  0
ARC
  5
17E
  8
LAYER1
  6
VOLLINIE
 62
    18
 10
430.8178028989681
 20
-42.33979004910729
 30
0.0
 40
4.762499999999896
 50
90.0
 51
0.0
  0
LINE
  5
17F
  8
BEMESSUNG
  6
VOLLINIE
 62
     6
 10
500.6678028989682
 20
118.6022610219264
 30
0.0
 11
500.6678028989682
 21
122.2431483430101
 31
0.0
  0
VIEWPORT
  5
61
 67
     1
  8
0
 10
0.0
 20
0.0
 30
0.0
 40
1.0
 41
1.0
 68
     1
 69
     1
1001
ACAD
1000
MVIEW
1002
{
1070
    16
1010
0.0
1020
0.0
1030
0.0
1020
0.0
1030
0.0
1010
0.0
1020
0.0
1030
1.0
1020
0.0
1030
1.0
1040
0.0
1040
1.0
1040
0.0
1040
0.0
1040
50.0
1040
0.0
1040
0.0
1070
     0
1070
   100
1070
     0
1070
     3
1070
     0
1070
     0
1070
     0
1070
     0
1040
0.0
1040
0.0
1040
0.0
1040
0.5
1040
0.5
1040
0.0
1040
0.0
1070
     0
1002
{
1002
}
1002
}
  0
ENDSEC
  0
EOF
