  0
SECTION
  2
HEADER
  9
$ACADVER
  1
AC1009
  9
$DWGCODEPAGE
  3
ansi_1252
  9
$INSBASE
 10
0.0
 20
0.0
 30
0.0
  9
$EXTMIN
 10
0.0
 20
-58.36203272719254
 30
0.0
  9
$EXTMAX
 10
372.2593755722046
 20
221.4936992645264
 30
62.98605814074874
  9
$LIMMIN
 10
0.0
 20
0.0
  9
$LIMMAX
 10
12.0
 20
9.0
  9
$ORTHOMODE
 70
     0
  9
$REGENMODE
 70
     1
  9
$FILLMODE
 70
     1
  9
$QTEXTMODE
 70
     0
  9
$MIRRTEXT
 70
     1
  9
$DRAGMODE
 70
     2
  9
$LTSCALE
 40
1.0
  9
$OSMODE
 70
    37
  9
$ATTMODE
 70
     1
  9
$TEXTSIZE
 40
0.2
  9
$TRACEWID
 40
0.05
  9
$TEXTSTYLE
  7
STANDARD
  9
$CLAYER
  8
0
  9
$CELTYPE
  6
BYLAYER
  9
$CECOLOR
 62
   256
  9
$DIMSCALE
 40
1.0
  9
$DIMASZ
 40
0.18
  9
$DIMEXO
 40
0.0625
  9
$DIMDLI
 40
0.38
  9
$DIMRND
 40
0.0
  9
$DIMDLE
 40
0.0
  9
$DIMEXE
 40
0.18
  9
$DIMTP
 40
0.0
  9
$DIMTM
 40
0.0
  9
$DIMTXT
 40
0.18
  9
$DIMCEN
 40
0.09
  9
$DIMTSZ
 40
0.0
  9
$DIMTOL
 70
     0
  9
$DIMLIM
 70
     0
  9
$DIMTIH
 70
     1
  9
$DIMTOH
 70
     1
  9
$DIMSE1
 70
     0
  9
$DIMSE2
 70
     0
  9
$DIMTAD
 70
     0
  9
$DIMZIN
 70
     0
  9
$DIMBLK
  1

  9
$DIMASO
 70
     1
  9
$DIMSHO
 70
     1
  9
$DIMPOST
  1

  9
$DIMAPOST
  1

  9
$DIMALT
 70
     0
  9
$DIMALTD
 70
     2
  9
$DIMALTF
 40
25.4
  9
$DIMLFAC
 40
1.0
  9
$DIMTOFL
 70
     0
  9
$DIMTVP
 40
0.0
  9
$DIMTIX
 70
     0
  9
$DIMSOXD
 70
     0
  9
$DIMSAH
 70
     0
  9
$DIMBLK1
  1

  9
$DIMBLK2
  1

  9
$DIMSTYLE
  2
STANDARD
  9
$DIMCLRD
 70
     0
  9
$DIMCLRE
 70
     0
  9
$DIMCLRT
 70
     0
  9
$DIMTFAC
 40
1.0
  9
$DIMGAP
 40
0.09
  9
$LUNITS
 70
     2
  9
$LUPREC
 70
     4
  9
$SKETCHINC
 40
0.1
  9
$FILLETRAD
 40
0.5
  9
$AUNITS
 70
     0
  9
$AUPREC
 70
     0
  9
$MENU
  1
.
  9
$ELEVATION
 40
0.0
  9
$PELEVATION
 40
0.0
  9
$THICKNESS
 40
0.0
  9
$LIMCHECK
 70
     0
  9
$CHAMFERA
 40
0.5
  9
$CHAMFERB
 40
0.5
  9
$SKPOLY
 70
     0
  9
$TDCREATE
 40
2305814.615868056
  9
$TDUPDATE
 40
2305814.615868067
  9
$TDINDWG
 40
0.0000000116
  9
$TDUSRTIMER
 40
0.0000000116
  9
$USRTIMER
 70
     1
  9
$ANGBASE
 50
0.0
  9
$ANGDIR
 70
     0
  9
$PDMODE
 70
     0
  9
$PDSIZE
 40
0.0
  9
$PLINEWID
 40
0.0
  9
$COORDS
 70
     1
  9
$SPLFRAME
 70
     0
  9
$SPLINETYPE
 70
     6
  9
$SPLINESEGS
 70
     8
  9
$ATTDIA
 70
     0
  9
$ATTREQ
 70
     1
  9
$HANDLING
 70
     1
  9
$HANDSEED
  5
18C
  9
$SURFTAB1
 70
     6
  9
$SURFTAB2
 70
     6
  9
$SURFTYPE
 70
     6
  9
$SURFU
 70
     6
  9
$SURFV
 70
     6
  9
$UCSNAME
  2

  9
$UCSORG
 10
0.0
 20
0.0
 30
0.0
  9
$UCSXDIR
 10
1.0
 20
0.0
 30
0.0
  9
$UCSYDIR
 10
0.0
 20
1.0
 30
0.0
  9
$PUCSNAME
  2

  9
$PUCSORG
 10
0.0
 20
0.0
 30
0.0
  9
$PUCSXDIR
 10
1.0
 20
0.0
 30
0.0
  9
$PUCSYDIR
 10
0.0
 20
1.0
 30
0.0
  9
$USERI1
 70
     0
  9
$USERI2
 70
     0
  9
$USERI3
 70
     0
  9
$USERI4
 70
     0
  9
$USERI5
 70
     0
  9
$USERR1
 40
0.0
  9
$USERR2
 40
0.0
  9
$USERR3
 40
0.0
  9
$USERR4
 40
0.0
  9
$USERR5
 40
0.0
  9
$WORLDVIEW
 70
     1
  9
$SHADEDGE
 70
     3
  9
$SHADEDIF
 70
    70
  9
$TILEMODE
 70
     1
  9
$MAXACTVP
 70
    64
  9
$PLIMCHECK
 70
     0
  9
$PEXTMIN
 10
1.000000000000000E+20
 20
1.000000000000000E+20
 30
1.000000000000000E+20
  9
$PEXTMAX
 10
-1.000000000000000E+20
 20
-1.000000000000000E+20
 30
-1.000000000000000E+20
  9
$PLIMMIN
 10
0.0
 20
0.0
  9
$PLIMMAX
 10
12.0
 20
9.0
  9
$UNITMODE
 70
     0
  9
$VISRETAIN
 70
     1
  9
$PLINEGEN
 70
     0
  9
$PSLTSCALE
 70
     1
  0
ENDSEC
  0
SECTION
  2
TABLES
  0
TABLE
  2
VPORT
 70
     1
  0
VPORT
  2
*ACTIVE
 70
     0
 10
0.0
 20
0.0
 11
1.0
 21
1.0
 12
0.0
 22
0.0
 13
0.0
 23
0.0
 14
0.5
 24
0.5
 15
0.5
 25
0.5
 16
0.0
 26
0.0
 36
1.0
 17
277.559370682761
 27
69.089306269681
 37
0.0
 40
260.000731553622
 41
0.7430286785949194
 42
50.0
 43
0.0
 44
0.0
 50
0.0
 51
0.0
 71
     0
 72
   100
 73
     1
 74
     3
 75
     0
 76
     0
 77
     0
 78
     0
  0
ENDTAB
  0
TABLE
  2
LTYPE
 70
    13
  0
LTYPE
  2
CONTINUOUS
 70
     0
  3
Solid line
 72
    65
 73
     0
 40
0.0
  0
LTYPE
  2
VOLLINIE
 70
     0
  3
____________________
 72
    65
 73
     0
 40
0.0
  0
LTYPE
  2
ZWEISTRICHPUNKT
 70
     0
  3
__ __ . __ __ . __ 
 72
    65
 73
     6
 40
22.225
 49
0.25
 49
-0.125
 49
0.25
 49
-0.125
 49
0.0
 49
-0.125
  0
LTYPE
  2
STRICHPUNKT_LANG
 70
     0
  3
___ _ ___ _ ___ _ _
 72
    65
 73
     4
 40
28.575
 49
0.75
 49
-0.125
 49
0.125
 49
-0.125
  0
LTYPE
  2
STRICHPUNKT
 70
     0
  3
_._._._._._._._._._
 72
    65
 73
     4
 40
12.7
 49
0.25
 49
-0.125
 49
0.0
 49
-0.125
  0
LTYPE
  2
STRICHLINIE_LANG
 70
     0
  3
_ _ _ _ _ _ _ _ _ _
 72
    65
 73
     2
 40
9.524999999999999
 49
0.25
 49
-0.125
  0
LTYPE
  2
STRICHZWEIPKT__KURZ
 70
     0
  3
__..__..__..__..__.
 72
    65
 73
     6
 40
15.875
 49
0.25
 49
-0.125
 49
0.0
 49
-0.125
 49
0.0
 49
-0.125
  0
LTYPE
  2
GEPUNKTET
 70
     0
  3
...................
 72
    65
 73
     2
 40
3.175
 49
0.0
 49
-0.125
  0
LTYPE
  2
STRICHLINIE
 70
     0
  3
__ __ __ __ __ __ _
 72
    65
 73
     2
 40
4.762499999999999
 49
0.125
 49
-0.0625
  0
LTYPE
  2
STRICHZWEIPUNKT
 70
     0
  3
___ _ _ ___ _ _ ___
 72
    65
 73
     6
 40
31.75
 49
0.625
 49
-0.125
 49
0.125
 49
-0.125
 49
0.125
 49
-0.125
  0
LTYPE
  2
STRICHZWEIPKT__LANG
 70
     0
  3
________ _ _ ______
 72
    65
 73
     6
 40
37.2745
 49
1.0
 49
-0.0725
 49
0.125
 49
-0.0725
 49
0.125
 49
-0.0725
  0
LTYPE
  2
STRICHLINIE_KURZ
 70
     0
  3
_ _ _ _ _ _ _ _ _ _
 72
    65
 73
     2
 40
3.682999999999999
 49
0.0725
 49
-0.0725
  0
LTYPE
  2
HIDDEN
 70
     0
  3
-- -- -- -- -- -- -
 72
    65
 73
     2
 40
76.19999999999999
 49
2.0
 49
-1.0
  0
ENDTAB
  0
TABLE
  2
LAYER
 70
     4
  0
LAYER
  2
0
 70
     0
 62
     7
  6
CONTINUOUS
  0
LAYER
  2
HILFSLINIEN
 70
     0
 62
     7
  6
CONTINUOUS
  0
LAYER
  2
BEMESSUNG
 70
     0
 62
     7
  6
CONTINUOUS
  0
LAYER
  2
LAYER1
 70
     0
 62
     7
  6
CONTINUOUS
  0
ENDTAB
  0
TABLE
  2
STYLE
 70
     1
  0
STYLE
  2
STANDARD
 70
     0
 40
0.0
 41
1.0
 50
0.0
 71
     0
 42
0.2
  3
txt
  4

  0
ENDTAB
  0
TABLE
  2
VIEW
 70
     0
  0
ENDTAB
  0
TABLE
  2
UCS
 70
     0
  0
ENDTAB
  0
TABLE
  2
APPID
 70
     2
  0
APPID
  2
ACAD
 70
     0
  0
APPID
  2
PUNCH__SOFTWARE_VIACAD
 70
     0
  0
ENDTAB
  0
TABLE
  2
DIMSTYLE
 70
     1
  0
DIMSTYLE
  2
STANDARD
 70
     0
  3

  4

  5

  6

  7

 40
1.0
 41
0.18
 42
0.0625
 43
0.38
 44
0.18
 45
0.0
 46
0.0
 47
0.0
 48
0.0
140
0.18
141
0.09
142
0.0
143
25.4
144
1.0
145
0.0
146
1.0
147
0.09
 71
     0
 72
     0
 73
     1
 74
     1
 75
     0
 76
     0
 77
     0
 78
     0
170
     0
171
     2
172
     0
173
     0
174
     0
175
     0
176
     0
177
     0
178
     0
  0
ENDTAB
  0
ENDSEC
  0
SECTION
  2
BLOCKS
  0
BLOCK
  8
0
  2
$MODEL_SPACE
 70
     0
 10
0.0
 20
0.0
 30
0.0
  3
$MODEL_SPACE
  1

  0
ENDBLK
  5
21
  8
0
  0
BLOCK
 67
     1
  8
0
  2
$PAPER_SPACE
 70
     0
 10
0.0
 20
0.0
 30
0.0
  3
$PAPER_SPACE
  1

  0
ENDBLK
  5
1D
 67
     1
  8
0
  0
ENDSEC
  0
SECTION
  2
ENTITIES
  0
LINE
  5
6E
  8
HILFSLINIEN
  6
VOLLINIE
 62
     6
 10
235.859370682761
 20
88.38512390271438
 30
0.0
 11
235.859370682761
 21
108.3851239027144
 31
0.0
  0
LINE
  5
6F
  8
HILFSLINIEN
  6
VOLLINIE
 62
     6
 10
225.8593706827611
 20
98.38512390271437
 30
0.0
 11
245.8593706827611
 21
98.38512390271437
 31
0.0
  0
ARC
  5
70
  8
HILFSLINIEN
  6
VOLLINIE
 62
    18
 10
273.8073231966977
 20
120.6551239027144
 30
0.0
 40
10.00000000000001
 50
275.2149980038138
 51
70.98873779255334
  0
ARC
  5
71
  8
HILFSLINIEN
  6
VOLLINIE
 62
    18
 10
263.8073231966976
 20
98.65512390271475
 30
0.0
 40
10.9999999999996
 50
95.21500489862156
 51
142.4726176911026
  0
LINE
  5
72
  8
HILFSLINIEN
  6
VOLLINIE
 62
    18
 10
262.8074959709606
 20
109.609590823504
 30
0.0
 11
274.716257038277
 21
110.6965176110874
 31
0.0
  0
ARC
  5
73
  8
HILFSLINIEN
  6
VOLLINIE
 62
    18
 10
235.8593706827609
 20
98.38512390271441
 30
0.0
 40
11.00000000000001
 50
158.9032186839556
 51
322.4726176911017
  0
LINE
  5
74
  8
HILFSLINIEN
  6
VOLLINIE
 62
    18
 10
237.9743759794135
 20
136.6551239027144
 30
0.0
 11
200.7593706827609
 21
136.6551239027144
 31
0.0
  0
ARC
  5
75
  8
HILFSLINIEN
  6
VOLLINIE
 62
    18
 10
222.3073231966978
 20
114.6551239027143
 30
0.0
 40
7.500000000000044
 50
338.9032186839561
 51
91.60278084618652
  0
LINE
  5
76
  8
HILFSLINIEN
  6
VOLLINIE
 62
    18
 10
225.5966593583813
 20
102.3445122737192
 30
0.0
 11
229.3046263724113
 21
111.9555409224838
 31
0.0
  0
ARC
  5
77
  8
HILFSLINIEN
  6
VOLLINIE
 62
    18
 10
237.9743774623598
 20
16.65512390271545
 30
0.0
 40
119.999999999999
 50
70.98873499425346
 51
90.00000070805476
  0
LINE
  5
78
  8
HILFSLINIEN
  6
VOLLINIE
 62
     6
 10
192.8593706827609
 20
142.0551239027144
 30
0.0
 11
192.8593706827609
 21
115.6551239027144
 31
0.0
  0
LINE
  5
79
  8
HILFSLINIEN
  6
VOLLINIE
 62
    18
 10
200.759370682761
 20
136.0551239027144
 30
0.0
 11
200.7593706827606
 21
121.6551239027144
 31
0.0
  0
LINE
  5
7A
  8
HILFSLINIEN
  6
VOLLINIE
 62
    18
 10
184.9593706827609
 20
136.0551239027144
 30
0.0
 11
184.9593706827609
 21
121.6551239027144
 31
0.0
  0
ARC
  5
7B
  8
HILFSLINIEN
  6
VOLLINIE
 62
    18
 10
221.7731093608454
 20
-247.8476681639116
 30
0.0
 40
369.9999999997969
 50
89.94975969753023
 51
93.2558019947964
  0
LINE
  5
7C
  8
HILFSLINIEN
  6
VOLLINIE
 62
    18
 10
199.7593706827606
 20
120.6551239027144
 30
0.0
 11
185.9593706827609
 21
120.6551239027144
 31
0.0
  0
LINE
  5
7D
  8
HILFSLINIEN
  6
VOLLINIE
 62
    18
 10
199.759370682761
 20
137.0551239027144
 30
0.0
 11
185.9593706827609
 21
137.0551239027144
 31
0.0
  0
LINE
  5
7E
  8
HILFSLINIEN
  6
VOLLINIE
 62
    18
 10
225.5966593583813
 20
94.42573553170955
 30
0.0
 11
229.3046263724113
 21
84.81470688294495
 31
0.0
  0
ARC
  5
7F
  8
HILFSLINIEN
  6
VOLLINIE
 62
    18
 10
222.3073231966978
 20
82.11512390271447
 30
0.0
 40
7.500000000000054
 50
268.3972191538137
 51
21.09678131604387
  0
ARC
  5
80
  8
HILFSLINIEN
  6
VOLLINIE
 62
    18
 10
221.7731093608456
 20
444.6179159693688
 30
0.0
 40
369.9999999998254
 50
266.7441980052038
 51
270.0502403024697
  0
ARC
  5
81
  8
HILFSLINIEN
  6
VOLLINIE
 62
    18
 10
237.9743774623599
 20
180.1151239027138
 30
0.0
 40
119.9999999999994
 50
269.9999992919453
 51
289.0112650057465
  0
LINE
  5
82
  8
HILFSLINIEN
  6
VOLLINIE
 62
    18
 10
237.9743759794135
 20
60.11512390271442
 30
0.0
 11
200.7593706827609
 21
60.11512390271442
 31
0.0
  0
LINE
  5
83
  8
HILFSLINIEN
  6
VOLLINIE
 62
    18
 10
199.7593706827608
 20
76.11512390271439
 30
0.0
 11
185.9593706827609
 21
76.11512390271439
 31
0.0
  0
LINE
  5
84
  8
HILFSLINIEN
  6
VOLLINIE
 62
    18
 10
200.7593706827609
 20
60.71512390271433
 30
0.0
 11
200.7593706827608
 21
75.11512390271437
 31
0.0
  0
LINE
  5
85
  8
HILFSLINIEN
  6
VOLLINIE
 62
    18
 10
199.7593706827609
 20
59.71512390271434
 30
0.0
 11
185.9593706827609
 21
59.71512390271434
 31
0.0
  0
LINE
  5
86
  8
HILFSLINIEN
  6
VOLLINIE
 62
    18
 10
184.9593706827609
 20
60.71512390271433
 30
0.0
 11
184.9593706827609
 21
75.11512390271437
 31
0.0
  0
LINE
  5
87
  8
HILFSLINIEN
  6
VOLLINIE
 62
    18
 10
262.6513706827611
 20
91.11512390271444
 30
0.0
 11
262.651370682761
 21
103.6151239027145
 31
0.0
  0
ARC
  5
88
  8
HILFSLINIEN
  6
VOLLINIE
 62
    18
 10
259.1513706827611
 20
103.6151239027145
 30
0.0
 40
3.499999999999951
 50
0.0
 51
114.818079375931
  0
LINE
  5
89
  8
HILFSLINIEN
  6
VOLLINIE
 62
    18
 10
286.3073231966979
 20
104.2955586680067
 30
0.0
 11
286.3073231966978
 21
121.5476851652714
 31
0.0
  0
ARC
  5
8A
  8
HILFSLINIEN
  6
VOLLINIE
 62
    18
 10
369.0093706827611
 20
115.1351239027145
 30
0.0
 40
3.249999999999977
 50
237.4042469838449
 51
55.81217552470245
  0
ARC
  5
8B
  8
HILFSLINIEN
  6
VOLLINIE
 62
    18
 10
369.0093706827611
 20
81.6351239027145
 30
0.0
 40
3.250000000000009
 50
304.1878244752972
 51
122.5957530161593
  0
ARC
  5
8C
  8
HILFSLINIEN
  6
VOLLINIE
 62
    18
 10
288.3073231966978
 20
121.5476828862217
 30
0.0
 40
2.000000000000031
 50
65.48212661938638
 51
179.9999347100363
  0
ARC
  5
8D
  8
HILFSLINIEN
  6
VOLLINIE
 62
    18
 10
288.3073231966978
 20
104.2955586680067
 30
0.0
 40
1.999999999999955
 50
180.0
 51
267.9101028583054
  0
LINE
  5
8E
  8
HILFSLINIEN
  6
VOLLINIE
 62
    18
 10
237.9743759794135
 20
133.6551239027144
 30
0.0
 11
201.7593706827609
 21
133.6551239027144
 31
0.0
  0
ARC
  5
8F
  8
HILFSLINIEN
  6
VOLLINIE
 62
    18
 10
237.9743774623598
 20
16.65512390271525
 30
0.0
 40
116.9999999999992
 50
82.57773337045231
 51
90.00000070805473
  0
LINE
  5
90
  8
HILFSLINIEN
  6
VOLLINIE
 62
    18
 10
267.9593706827609
 20
132.8484979890731
 30
0.0
 11
228.5976180467609
 21
110.1229795089029
 31
0.0
  0
ARC
  5
91
  8
HILFSLINIEN
  6
VOLLINIE
 62
    18
 10
252.9593706827609
 20
131.6831638676922
 30
0.0
 40
1.000000000000038
 50
300.0000000000062
 51
82.57773337044675
  0
LINE
  5
92
  8
HILFSLINIEN
  6
VOLLINIE
 62
    18
 10
253.459370682761
 20
130.8171384639077
 30
0.0
 11
238.8630968695954
 21
122.3899758487111
 31
0.0
  0
LINE
  5
93
  8
HILFSLINIEN
  6
VOLLINIE
 62
    18
 10
201.8622447307391
 20
126.1763736464197
 30
0.0
 11
223.5490385700396
 21
128.4192819120103
 31
0.0
  0
ARC
  5
94
  8
HILFSLINIEN
  6
VOLLINIE
 62
    18
 10
225.1950233376919
 20
112.5041716659373
 30
0.0
 40
16.00000000000006
 50
39.23189268547404
 51
95.90469513801284
  0
ARC
  5
95
  8
HILFSLINIEN
  6
VOLLINIE
 62
    18
 10
238.3630968695954
 20
123.2560012524955
 30
0.0
 40
0.9999999999999483
 50
219.2318926854711
 51
299.9999999999981
  0
ARC
  5
96
  8
HILFSLINIEN
  6
VOLLINIE
 62
    18
 10
201.7593706827608
 20
127.1710680367992
 30
0.0
 40
0.9999999999999978
 50
180.0
 51
275.9046951380136
  0
ARC
  5
97
  8
HILFSLINIEN
  6
VOLLINIE
 62
    18
 10
201.7593706827608
 20
132.6551239027144
 30
0.0
 40
0.9999999999999805
 50
89.99999999999837
 51
180.0
  0
LINE
  5
98
  8
HILFSLINIEN
  6
STRICHLINIE_LANG
 62
    18
 10
188.3593706827609
 20
137.0551239027144
 30
0.0
 11
188.3593706827609
 21
120.6551239027144
 31
0.0
  0
LINE
  5
99
  8
HILFSLINIEN
  6
STRICHLINIE_LANG
 62
    18
 10
197.3593706827609
 20
137.0551239027144
 30
0.0
 11
197.3593706827609
 21
120.6551239027144
 31
0.0
  0
LINE
  5
9A
  8
HILFSLINIEN
  6
STRICHLINIE_LANG
 62
    18
 10
188.9593706827609
 20
137.0551239027144
 30
0.0
 11
188.9593706827609
 21
120.6551239027144
 31
0.0
  0
LINE
  5
9B
  8
HILFSLINIEN
  6
STRICHLINIE_LANG
 62
    18
 10
196.7593706827609
 20
137.0551239027144
 30
0.0
 11
196.7593706827609
 21
120.6551239027144
 31
0.0
  0
LINE
  5
9C
  8
HILFSLINIEN
  6
VOLLINIE
 62
     6
 10
192.8593706827609
 20
81.11512390271439
 30
0.0
 11
192.8593706827609
 21
54.71512390271433
 31
0.0
  0
LINE
  5
9D
  8
HILFSLINIEN
  6
STRICHLINIE_LANG
 62
    18
 10
188.3593706827609
 20
76.11512390271439
 30
0.0
 11
188.3593706827609
 21
59.71512390271434
 31
0.0
  0
LINE
  5
9E
  8
HILFSLINIEN
  6
STRICHLINIE_LANG
 62
    18
 10
188.9593706827609
 20
76.11512390271439
 30
0.0
 11
188.9593706827609
 21
59.71512390271434
 31
0.0
  0
LINE
  5
9F
  8
HILFSLINIEN
  6
STRICHLINIE_LANG
 62
    18
 10
196.7593706827609
 20
76.11512390271439
 30
0.0
 11
196.7593706827609
 21
59.71512390271434
 31
0.0
  0
LINE
  5
A0
  8
HILFSLINIEN
  6
STRICHLINIE_LANG
 62
    18
 10
197.3593706827609
 20
76.11512390271439
 30
0.0
 11
197.3593706827609
 21
59.71512390271434
 31
0.0
  0
ARC
  5
A1
  8
HILFSLINIEN
  6
VOLLINIE
 62
    18
 10
185.9593706827609
 20
121.6551239027143
 30
0.0
 40
0.9999999999999805
 50
180.0
 51
270.0000000000032
  0
ARC
  5
A2
  8
HILFSLINIEN
  6
VOLLINIE
 62
    18
 10
185.9593706827609
 20
136.0551239027144
 30
0.0
 40
1.000000000000029
 50
90.0
 51
180.0
  0
ARC
  5
A3
  8
HILFSLINIEN
  6
VOLLINIE
 62
    18
 10
199.7593706827607
 20
121.6551239027144
 30
0.0
 40
0.9999999999999805
 50
269.9999999999984
 51
0.0
  0
ARC
  5
A4
  8
HILFSLINIEN
  6
VOLLINIE
 62
    18
 10
199.759370682761
 20
136.0551239027144
 30
0.0
 40
1.000000000000029
 50
0.0
 51
89.99999999999837
  0
ARC
  5
A5
  8
HILFSLINIEN
  6
VOLLINIE
 62
    18
 10
185.9593706827609
 20
60.71512390271433
 30
0.0
 40
0.9999999999999928
 50
180.0
 51
270.0000000000017
  0
ARC
  5
A6
  8
HILFSLINIEN
  6
VOLLINIE
 62
    18
 10
185.9593706827609
 20
75.1151239027144
 30
0.0
 40
0.9999999999999805
 50
89.99999999999675
 51
180.0
  0
ARC
  5
A7
  8
HILFSLINIEN
  6
VOLLINIE
 62
    18
 10
199.7593706827608
 20
75.1151239027144
 30
0.0
 40
0.9999999999999806
 50
0.0
 51
90.00000000000163
  0
ARC
  5
A8
  8
HILFSLINIEN
  6
VOLLINIE
 62
    18
 10
199.7593706827609
 20
60.71512390271433
 30
0.0
 40
0.9999999999999927
 50
270.0
 51
0.0
  0
LINE
  5
A9
  8
HILFSLINIEN
  6
VOLLINIE
 62
    18
 10
237.9743759794135
 20
63.11512390271432
 30
0.0
 11
201.7593706827609
 21
63.11512390271437
 31
0.0
  0
LINE
  5
AA
  8
HILFSLINIEN
  6
VOLLINIE
 62
    18
 10
201.8622447307391
 20
70.59387415900902
 30
0.0
 11
223.5490385700396
 21
68.35096589341842
 31
0.0
  0
LINE
  5
AB
  8
HILFSLINIEN
  6
VOLLINIE
 62
    18
 10
253.459370682761
 20
65.95310934152096
 30
0.0
 11
238.8630968695954
 21
74.38027195671769
 31
0.0
  0
ARC
  5
AC
  8
HILFSLINIEN
  6
VOLLINIE
 62
    18
 10
237.9743774623596
 20
180.1151239027176
 30
0.0
 40
117.0000000000032
 50
269.9999992919454
 51
277.4222666295475
  0
ARC
  5
AD
  8
HILFSLINIEN
  6
VOLLINIE
 62
    18
 10
252.9593706827609
 20
65.08708393773657
 30
0.0
 40
1.000000000000029
 50
277.4222666295532
 51
59.99999999999342
  0
ARC
  5
AE
  8
HILFSLINIEN
  6
VOLLINIE
 62
    18
 10
225.1950233376919
 20
84.26607613949136
 30
0.0
 40
15.99999999999999
 50
264.0953048619871
 51
343.6044080883755
  0
ARC
  5
AF
  8
HILFSLINIEN
  6
VOLLINIE
 62
    18
 10
238.3630968695954
 20
73.51424655293337
 30
0.0
 40
0.9999999999998519
 50
59.99999999999498
 51
140.7681073145319
  0
ARC
  5
B0
  8
HILFSLINIEN
  6
VOLLINIE
 62
    18
 10
199.7593706827607
 20
75.11512390271436
 30
0.0
 40
0.9999999999999563
 50
0.0
 51
90.00000000000325
  0
ARC
  5
B1
  8
HILFSLINIEN
  6
VOLLINIE
 62
    18
 10
201.7593706827608
 20
69.59917976862948
 30
0.0
 40
0.9999999999999762
 50
84.09530486198476
 51
180.0
  0
ARC
  5
B2
  8
HILFSLINIEN
  6
VOLLINIE
 62
    18
 10
201.7593706827609
 20
64.11512390271436
 30
0.0
 40
0.9999999999999925
 50
180.0
 51
270.0
  0
ARC
  5
B3
  8
HILFSLINIEN
  6
VOLLINIE
 62
    18
 10
199.759370682761
 20
60.71512390271433
 30
0.0
 40
0.9999999999999927
 50
270.0
 51
0.0
  0
LINE
  5
B4
  8
HILFSLINIEN
  6
VOLLINIE
 62
    18
 10
265.8091938789509
 20
65.16315497284072
 30
0.0
 11
230.9953253659683
 21
85.26295133034344
 31
0.0
  0
ARC
  5
B5
  8
HILFSLINIEN
  6
VOLLINIE
 62
    18
 10
256.6479558152175
 20
110.3810735296925
 30
0.0
 40
10.00000000000009
 50
323.1446053076428
 51
357.5827099925622
  0
ARC
  5
B6
  8
HILFSLINIEN
  6
VOLLINIE
 62
    18
 10
256.6479558152171
 20
86.38917427573654
 30
0.0
 40
10.00000000000033
 50
329.0892311002841
 51
36.85539469235545
  0
ARC
  5
B7
  8
HILFSLINIEN
  6
VOLLINIE
 62
    18
 10
253.4849058287498
 20
115.8683347496041
 30
0.0
 40
10.00000000000333
 50
282.9839859808466
 51
294.8180479690479
  0
ARC
  5
B8
  8
HILFSLINIEN
  6
VOLLINIE
 62
    18
 10
273.8073231966978
 20
76.11512390271439
 30
0.0
 40
10.00000000000019
 50
149.0892311002821
 51
289.0112652601372
  0
CIRCLE
  5
B9
  8
HILFSLINIEN
  6
VOLLINIE
 62
    18
 10
272.6509927940853
 20
98.38512390271448
 30
0.0
 40
6.75
  0
CIRCLE
  5
BA
  8
HILFSLINIEN
  6
VOLLINIE
 62
    18
 10
273.8073231966977
 20
120.6551239027144
 30
0.0
 40
6.750000000000028
  0
CIRCLE
  5
BB
  8
HILFSLINIEN
  6
VOLLINIE
 62
    18
 10
235.859370682761
 20
98.38512390271437
 30
0.0
 40
6.75
  0
CIRCLE
  5
BC
  8
HILFSLINIEN
  6
VOLLINIE
 62
    18
 10
273.8073231966977
 20
76.11512390271467
 30
0.0
 40
6.75
  0
LINE
  5
BD
  8
HILFSLINIEN
  6
VOLLINIE
 62
    18
 10
184.9593706827609
 20
-46.47607762692466
 30
0.0
 11
184.9593706827609
 21
-43.95417358434077
 31
0.0
  0
LINE
  5
BE
  8
HILFSLINIEN
  6
VOLLINIE
 62
    18
 10
192.8593706827609
 20
-37.21512560563269
 30
0.0
 11
281.8073231966977
 21
-37.21512560563269
 31
0.0
  0
LINE
  5
BF
  8
HILFSLINIEN
  6
VOLLINIE
 62
    18
 10
192.8593706827609
 20
-53.21512560563266
 30
0.0
 11
281.8073231966977
 21
-53.21512560563271
 31
0.0
  0
LINE
  5
C0
  8
HILFSLINIEN
  6
VOLLINIE
 62
    18
 10
286.3073231966978
 20
-52.21512560563266
 30
0.0
 11
286.3073231966978
 21
-49.41512560563265
 31
0.0
  0
LINE
  5
C1
  8
HILFSLINIEN
  6
VOLLINIE
 62
     6
 10
182.8593706827609
 20
-45.21512560563266
 30
0.0
 11
202.8593706827609
 21
-45.21512560563266
 31
0.0
  0
ARC
  5
C2
  8
HILFSLINIEN
  6
VOLLINIE
 62
    18
 10
310.0509270578619
 20
5.628442129291685
 30
0.0
 40
45.14354796815816
 50
257.3762381521615
 51
278.8054197075093
  0
ARC
  5
C3
  8
HILFSLINIEN
  6
VOLLINIE
 62
    18
 10
310.0509270578618
 20
-96.05869334055201
 30
0.0
 40
45.14354796815334
 50
81.19458029248936
 51
102.6237618478402
  0
LINE
  5
C4
  8
HILFSLINIEN
  6
VOLLINIE
 62
    18
 10
339.9233674815457
 20
-53.21512560563266
 30
0.0
 11
364.2593706827611
 21
-53.21512560563266
 31
0.0
  0
LINE
  5
C5
  8
HILFSLINIEN
  6
VOLLINIE
 62
    18
 10
339.923367481545
 20
-37.21512560563269
 30
0.0
 11
364.2593706827611
 21
-37.21512560563269
 31
0.0
  0
LINE
  5
C6
  8
HILFSLINIEN
  6
VOLLINIE
 62
    18
 10
283.8073231966977
 20
-51.21512560563271
 30
0.0
 11
283.8073231966977
 21
-48.4151256056327
 31
0.0
  0
LINE
  5
C7
  8
HILFSLINIEN
  6
VOLLINIE
 62
    18
 10
267.9593706827609
 20
-48.4151256056327
 30
0.0
 11
267.9593706827609
 21
-42.01512560563268
 31
0.0
  0
LINE
  5
C8
  8
HILFSLINIEN
  6
VOLLINIE
 62
    18
 10
267.9593706827609
 20
-42.01512560563268
 30
0.0
 11
285.3073231966977
 21
-42.01512560563268
 31
0.0
  0
LINE
  5
C9
  8
HILFSLINIEN
  6
VOLLINIE
 62
    18
 10
267.9593706827609
 20
-48.4151256056327
 30
0.0
 11
285.3073231966977
 21
-48.41512560563265
 31
0.0
  0
LINE
  5
CA
  8
HILFSLINIEN
  6
VOLLINIE
 62
    18
 10
283.8073231966977
 20
-42.01512560563268
 30
0.0
 11
283.8073231966977
 21
-39.21512560563269
 31
0.0
  0
LINE
  5
CB
  8
HILFSLINIEN
  6
VOLLINIE
 62
    18
 10
281.8073231966977
 20
-53.21512560563266
 30
0.0
 11
289.2574990042738
 21
-53.21512560563266
 31
0.0
  0
LINE
  5
CC
  8
HILFSLINIEN
  6
VOLLINIE
 62
    18
 10
281.8073231966977
 20
-37.21512560563269
 30
0.0
 11
289.2574990042743
 21
-37.21512560563269
 31
0.0
  0
ARC
  5
CD
  8
HILFSLINIEN
  6
VOLLINIE
 62
    18
 10
281.8073231966977
 20
-51.2151256056327
 30
0.0
 40
2.000000000000009
 50
270.0
 51
0.0
  0
ARC
  5
CE
  8
HILFSLINIEN
  6
VOLLINIE
 62
    18
 10
281.8073231966978
 20
-39.21512560563266
 30
0.0
 40
1.999999999999961
 50
0.0
 51
90.00000000000163
  0
LINE
  5
CF
  8
HILFSLINIEN
  6
VOLLINIE
 62
    18
 10
286.3073231966978
 20
-41.01512560563264
 30
0.0
 11
286.3073231966978
 21
-38.21512560563264
 31
0.0
  0
ARC
  5
D0
  8
HILFSLINIEN
  6
VOLLINIE
 62
    18
 10
285.3073231966978
 20
-49.41512560563264
 30
0.0
 40
0.9999999999999927
 50
0.0
 51
90.00000000000325
  0
ARC
  5
D1
  8
HILFSLINIEN
  6
VOLLINIE
 62
    18
 10
285.3073231966978
 20
-41.0151256056327
 30
0.0
 40
0.9999999999999805
 50
269.9999999999968
 51
0.0
  0
ARC
  5
D2
  8
HILFSLINIEN
  6
VOLLINIE
 62
    18
 10
287.3073231966978
 20
-52.21512560563267
 30
0.0
 40
0.9999999999999927
 50
180.0
 51
269.9999999999968
  0
ARC
  5
D3
  8
HILFSLINIEN
  6
VOLLINIE
 62
    18
 10
287.3073231966978
 20
-38.21512560563267
 30
0.0
 40
0.9999999999999806
 50
90.00000000000325
 51
180.0
  0
ARC
  5
D4
  8
HILFSLINIEN
  6
VOLLINIE
 62
    18
 10
289.2574990042736
 20
-3.2151256056299
 30
0.0
 40
50.00000000000276
 50
270.0
 51
282.6237618478394
  0
ARC
  5
D5
  8
HILFSLINIEN
  6
VOLLINIE
 62
    18
 10
289.2574990042749
 20
-87.2151256056276
 30
0.0
 40
49.99999999999491
 50
77.37623815215981
 51
90.00000000000072
  0
LINE
  5
D6
  8
HILFSLINIEN
  6
VOLLINIE
 62
     6
 10
192.8593706827609
 20
-55.21512560563266
 30
0.0
 11
192.8593706827609
 21
-35.21512560563269
 31
0.0
  0
ARC
  5
D7
  8
HILFSLINIEN
  6
VOLLINIE
 62
    18
 10
192.8593706827607
 20
-45.21512560563246
 30
0.0
 40
7.999999999999768
 50
89.99999999999837
 51
170.9312784539682
  0
CIRCLE
  5
D8
  8
HILFSLINIEN
  6
VOLLINIE
 62
    18
 10
192.8593706827609
 20
-45.21512560563266
 30
0.0
 40
3.899999999999999
  0
ARC
  5
D9
  8
HILFSLINIEN
  6
VOLLINIE
 62
    18
 10
192.8593706827609
 20
-45.21512560563274
 30
0.0
 40
7.999999999999932
 50
189.0687215460326
 51
270.0
  0
ARC
  5
DA
  8
HILFSLINIEN
  6
VOLLINIE
 62
    18
 10
192.8593706827609
 20
-45.21512560563274
 30
0.0
 40
7.999999999999928
 50
270.0
 51
336.421821521799
  0
LINE
  5
DB
  8
HILFSLINIEN
  6
VOLLINIE
 62
    18
 10
202.0245220726727
 20
-47.21512560563265
 30
0.0
 11
251.959370682761
 21
-47.21512560563265
 31
0.0
  0
LINE
  5
DC
  8
HILFSLINIEN
  6
VOLLINIE
 62
    18
 10
202.0245220726727
 20
-43.21512560563268
 30
0.0
 11
251.9593706827611
 21
-43.21512560563268
 31
0.0
  0
ARC
  5
DD
  8
HILFSLINIEN
  6
VOLLINIE
 62
    18
 10
251.9593706827611
 20
-41.21512560563271
 30
0.0
 40
1.999999999999961
 50
270.0
 51
0.0
  0
ARC
  5
DE
  8
HILFSLINIEN
  6
VOLLINIE
 62
    18
 10
251.959370682761
 20
-49.21512560563262
 30
0.0
 40
1.999999999999973
 50
0.0
 51
90.00000000000082
  0
ARC
  5
DF
  8
HILFSLINIEN
  6
VOLLINIE
 62
    18
 10
192.859370682761
 20
-45.21512560563261
 30
0.0
 40
7.999999999999923
 50
23.57817847820152
 51
90.0
  0
ARC
  5
E0
  8
HILFSLINIEN
  6
VOLLINIE
 62
    18
 10
202.0245220726726
 20
-41.21512560563274
 30
0.0
 40
1.999999999999935
 50
203.5781784782008
 51
270.0000000000017
  0
ARC
  5
E1
  8
HILFSLINIEN
  6
VOLLINIE
 62
    18
 10
202.0245220726726
 20
-49.21512560563259
 30
0.0
 40
1.999999999999936
 50
89.99999999999837
 51
156.4218215217992
  0
LINE
  5
E2
  8
HILFSLINIEN
  6
VOLLINIE
 62
    18
 10
256.2047662062547
 20
70.7082738750842
 30
0.0
 11
253.459370682761
 21
65.95310934152096
 31
0.0
  0
ARC
  5
E3
  8
HILFSLINIEN
  6
VOLLINIE
 62
    18
 10
230.4953253659683
 20
84.39692592655906
 30
0.0
 40
0.9999999999999879
 50
59.99999999999764
 51
195.5718928441218
  0
ARC
  5
E4
  8
HILFSLINIEN
  6
VOLLINIE
 62
    18
 10
265.3091938789507
 20
64.29712956905632
 30
0.0
 40
1.000000000000028
 50
283.2796656165676
 51
59.99999999999342
  0
LINE
  5
E5
  8
HILFSLINIEN
  6
VOLLINIE
 62
    18
 10
254.4593706827609
 20
-37.21512560563269
 30
0.0
 11
253.9448095583237
 21
-41.45602490285944
 31
0.0
  0
LINE
  5
E6
  8
HILFSLINIEN
  6
VOLLINIE
 62
    18
 10
254.4593706827609
 20
-53.21512560563259
 30
0.0
 11
253.9448095583237
 21
-48.9742263084058
 31
0.0
  0
LINE
  5
E7
  8
HILFSLINIEN
  6
VOLLINIE
 62
    18
 10
224.8593706827609
 20
97.38512390271443
 30
0.0
 11
224.8593706827609
 21
97.29772009458013
 31
0.0
  0
LINE
  5
E8
  8
HILFSLINIEN
  6
VOLLINIE
 62
     6
 10
273.8073231966977
 20
-58.36203272719254
 30
0.0
 11
273.8073231966977
 21
-32.86203272719256
 31
0.0
  0
LINE
  5
E9
  8
HILFSLINIEN
  6
VOLLINIE
 62
     6
 10
235.859370682761
 20
-57.8342611047328
 30
0.0
 11
235.859370682761
 21
-32.33426110473289
 31
0.0
  0
LINE
  5
EA
  8
HILFSLINIEN
  6
VOLLINIE
 62
    18
 10
231.159370682761
 20
-53.21512560563271
 30
0.0
 11
231.159370682761
 21
-37.21512560563269
 31
0.0
  0
LINE
  5
EB
  8
HILFSLINIEN
  6
VOLLINIE
 62
    18
 10
240.559370682761
 20
-53.21512560563271
 30
0.0
 11
240.559370682761
 21
-37.21512560563269
 31
0.0
  0
LINE
  5
EC
  8
HILFSLINIEN
  6
VOLLINIE
 62
    18
 10
229.159370682761
 20
-37.21512560563269
 30
0.0
 11
229.159370682761
 21
-36.71512560563271
 31
0.0
  0
LINE
  5
ED
  8
HILFSLINIEN
  6
VOLLINIE
 62
    18
 10
242.559370682761
 20
-37.21512560563269
 30
0.0
 11
242.5593706827611
 21
-36.71512560563271
 31
0.0
  0
ARC
  5
EE
  8
HILFSLINIEN
  6
VOLLINIE
 62
    18
 10
235.8593706827611
 20
-42.99262560563253
 30
0.0
 40
12.22250000000015
 50
236.7584861722161
 51
303.2415138277836
  0
LINE
  5
EF
  8
HILFSLINIEN
  6
VOLLINIE
 62
    18
 10
230.159370682761
 20
-35.71512560563267
 30
0.0
 11
241.5593706827611
 21
-35.71512560563267
 31
0.0
  0
ARC
  5
F0
  8
HILFSLINIEN
  6
VOLLINIE
 62
    18
 10
241.5593706827612
 20
-36.71512560563265
 30
0.0
 40
0.9999999999999806
 50
0.0
 51
90.00000000000487
  0
ARC
  5
F1
  8
HILFSLINIEN
  6
VOLLINIE
 62
    18
 10
230.159370682761
 20
-36.71512560563265
 30
0.0
 40
0.9999999999999806
 50
90.0
 51
180.0
  0
LINE
  5
F2
  8
HILFSLINIEN
  6
VOLLINIE
 62
    18
 10
278.5073231966978
 20
-53.21512560563271
 30
0.0
 11
278.5073231966978
 21
-37.21512560563269
 31
0.0
  0
LINE
  5
F3
  8
HILFSLINIEN
  6
VOLLINIE
 62
    18
 10
269.1073231966978
 20
-53.21512560563271
 30
0.0
 11
269.1073231966978
 21
-37.21512560563269
 31
0.0
  0
ARC
  5
F4
  8
HILFSLINIEN
  6
VOLLINIE
 62
    18
 10
273.8073231966978
 20
-42.99262560563253
 30
0.0
 40
12.22250000000015
 50
236.7584861722161
 51
303.2415138277836
  0
LINE
  5
F5
  8
HILFSLINIEN
  6
VOLLINIE
 62
    18
 10
268.1073231966978
 20
-35.71512560563267
 30
0.0
 11
279.5073231966978
 21
-35.71512560563267
 31
0.0
  0
LINE
  5
F6
  8
HILFSLINIEN
  6
VOLLINIE
 62
    18
 10
280.5073231966978
 20
-37.21512560563269
 30
0.0
 11
280.5073231966978
 21
-36.71512560563271
 31
0.0
  0
ARC
  5
F7
  8
HILFSLINIEN
  6
VOLLINIE
 62
    18
 10
279.5073231966978
 20
-36.71512560563265
 30
0.0
 40
0.9999999999999806
 50
0.0
 51
90.00000000000325
  0
LINE
  5
F8
  8
HILFSLINIEN
  6
VOLLINIE
 62
    18
 10
267.1073231966978
 20
-37.21512560563269
 30
0.0
 11
267.1073231966978
 21
-36.71512560563271
 31
0.0
  0
ARC
  5
F9
  8
HILFSLINIEN
  6
VOLLINIE
 62
    18
 10
268.1073231966978
 20
-36.71512560563265
 30
0.0
 40
0.9999999999999805
 50
89.99999999999675
 51
180.0
  0
ARC
  5
FA
  8
HILFSLINIEN
  6
VOLLINIE
 62
    18
 10
339.9233674815437
 20
-187.2151256056191
 30
0.0
 40
149.9999999999864
 50
90.0
 51
98.80541970751018
  0
ARC
  5
FB
  8
HILFSLINIEN
  6
VOLLINIE
 62
    18
 10
339.9233674815451
 20
96.78487439435924
 30
0.0
 40
149.9999999999918
 50
261.1945802924897
 51
270.0
  0
ARC
  5
FC
  8
HILFSLINIEN
  6
VOLLINIE
 62
    18
 10
364.2593706827611
 20
-45.21512560563268
 30
0.0
 40
7.999999999999986
 50
270.0
 51
90.0
  0
ARC
  5
FD
  8
HILFSLINIEN
  6
VOLLINIE
 62
    18
 10
272.6509927940853
 20
98.38512390271444
 30
0.0
 40
10.00000000000002
 50
37.34458438011578
 51
216.8553946923562
  0
LINE
  5
FE
  8
HILFSLINIEN
  6
VOLLINIE
 62
    18
 10
286.3073231966978
 20
96.9726682216327
 30
0.0
 11
286.3073231966978
 21
72.02254062189903
 31
0.0
  0
ARC
  5
FF
  8
HILFSLINIEN
  6
VOLLINIE
 62
    18
 10
351.4497579307669
 20
89.2851239027146
 30
0.0
 40
34.4999999999999
 50
56.55509708556213
 51
102.4829224300435
  0
ARC
  5
100
  8
HILFSLINIEN
  6
VOLLINIE
 62
    18
 10
351.4497579307669
 20
107.4851239027149
 30
0.0
 40
34.50000000000045
 50
257.5170775699569
 51
303.4449029144374
  0
ARC
  5
101
  8
HILFSLINIEN
  6
VOLLINIE
 62
    18
 10
351.4497579307669
 20
107.485123902714
 30
0.0
 40
31.49999999999948
 50
257.5170775699565
 51
284.6626785709134
  0
LINE
  5
102
  8
HILFSLINIEN
  6
VOLLINIE
 62
    18
 10
327.5033118286065
 20
77.44925901921866
 30
0.0
 11
343.99626534191
 21
73.79988309568066
 31
0.0
  0
ARC
  5
103
  8
HILFSLINIEN
  6
VOLLINIE
 62
    18
 10
314.3678840902553
 20
18.0851239027144
 30
0.0
 40
60.80000000000005
 50
77.52326211880448
 51
124.9519511038849
  0
ARC
  5
104
  8
HILFSLINIEN
  6
VOLLINIE
 62
    18
 10
314.3678840902553
 20
178.6851239027143
 30
0.0
 40
60.79999999999995
 50
235.048048896115
 51
282.4767378811956
  0
LINE
  5
105
  8
HILFSLINIEN
  6
VOLLINIE
 62
    18
 10
287.9798819837281
 20
94.78066152119747
 30
0.0
 11
280.6010097310218
 21
104.4511960010679
 31
0.0
  0
LINE
  5
106
  8
HILFSLINIEN
  6
VOLLINIE
 62
    18
 10
293.3073231966978
 20
110.8774287481278
 30
0.0
 11
293.3073231966977
 21
115.7062781017393
 31
0.0
  0
ARC
  5
107
  8
HILFSLINIEN
  6
VOLLINIE
 62
    18
 10
358.7904650055943
 20
117.3406762879658
 30
0.0
 40
2.499999999999977
 50
277.1765023040102
 51
75.3373214290897
  0
ARC
  5
108
  8
HILFSLINIEN
  6
VOLLINIE
 62
    18
 10
314.3678840902553
 20
178.6851239027149
 30
0.0
 40
63.80000000000059
 50
253.1615494734873
 51
282.4767378811954
  0
LINE
  5
109
  8
HILFSLINIEN
  6
VOLLINIE
 62
    18
 10
365.9312992203186
 20
112.6963712049352
 30
0.0
 11
316.6823968519668
 21
106.4953068268197
 31
0.0
  0
LINE
  5
10A
  8
HILFSLINIEN
  6
VOLLINIE
 62
    18
 10
359.1027808674216
 20
114.8602612415569
 30
0.0
 11
316.3076178177739
 21
109.4718048825102
 31
0.0
  0
ARC
  5
10B
  8
HILFSLINIEN
  6
VOLLINIE
 62
    18
 10
314.3678840902553
 20
18.08512390271375
 30
0.0
 40
63.8000000000007
 50
77.52326211880458
 51
106.8384505265126
  0
LINE
  5
10C
  8
HILFSLINIEN
  6
VOLLINIE
 62
    18
 10
359.1027808674216
 20
81.90998656387198
 30
0.0
 11
316.3076178177739
 21
87.29844292291868
 31
0.0
  0
LINE
  5
10D
  8
HILFSLINIEN
  6
VOLLINIE
 62
    18
 10
365.9312992203184
 20
84.07387660049362
 30
0.0
 11
316.6823968519669
 21
90.2749409786092
 31
0.0
  0
ARC
  5
10E
  8
HILFSLINIEN
  6
VOLLINIE
 62
    18
 10
358.7904650055943
 20
79.42957151746315
 30
0.0
 40
2.499999999999986
 50
284.6626785709116
 51
82.82349769598855
  0
LINE
  5
10F
  8
HILFSLINIEN
  6
VOLLINIE
 62
    18
 10
328.1514416189419
 20
80.37841039374334
 30
0.0
 11
344.6443951322454
 21
76.72903447020535
 31
0.0
  0
ARC
  5
110
  8
HILFSLINIEN
  6
VOLLINIE
 62
    18
 10
312.8073231966978
 20
93.28512390271449
 30
0.0
 40
2.999999999999966
 50
0.0
 51
90.0
  0
LINE
  5
111
  8
HILFSLINIEN
  6
VOLLINIE
 62
    18
 10
299.3073231966978
 20
96.28512390271435
 30
0.0
 11
294.4548904521965
 21
93.48357055145202
 31
0.0
  0
LINE
  5
112
  8
HILFSLINIEN
  6
VOLLINIE
 62
    18
 10
300.9150183512847
 20
90.28512390271446
 30
0.0
 11
312.9297325527286
 21
90.28512390271446
 31
0.0
  0
ARC
  5
113
  8
HILFSLINIEN
  6
VOLLINIE
 62
    18
 10
316.8073231966979
 20
91.26710699717275
 30
0.0
 40
4.000000000000094
 50
194.211134292028
 51
262.8234976959858
  0
ARC
  5
114
  8
HILFSLINIEN
  6
VOLLINIE
 62
    18
 10
316.8073231966978
 20
91.26710699717266
 30
0.0
 40
1.000000000000018
 50
180.0
 51
262.823497695984
  0
LINE
  5
115
  8
HILFSLINIEN
  6
VOLLINIE
 62
    18
 10
315.8073231966977
 20
93.28512390271446
 30
0.0
 11
315.8073231966978
 21
91.26710699717266
 31
0.0
  0
LINE
  5
116
  8
HILFSLINIEN
  6
VOLLINIE
 62
    18
 10
300.9150183512847
 20
90.28512390271446
 30
0.0
 11
293.3073231966978
 21
85.89281905730108
 31
0.0
  0
LINE
  5
117
  8
HILFSLINIEN
  6
VOLLINIE
 62
    18
 10
293.3073231966978
 20
85.89281905730108
 30
0.0
 11
293.3073231966977
 21
81.06396970368961
 31
0.0
  0
ARC
  5
118
  8
HILFSLINIEN
  6
VOLLINIE
 62
    18
 10
295.3073231966978
 20
81.0639697036896
 30
0.0
 40
1.999999999999987
 50
180.0
 51
286.8384505265127
  0
ARC
  5
119
  8
HILFSLINIEN
  6
VOLLINIE
 62
    18
 10
291.9548904521965
 20
97.81369757037416
 30
0.0
 40
4.999999999999934
 50
217.3445843801153
 51
300.0000000000004
  0
LINE
  5
11A
  8
HILFSLINIEN
  6
VOLLINIE
 62
    18
 10
299.3073231966978
 20
100.4851239027145
 30
0.0
 11
312.8073231966978
 21
100.4851239027145
 31
0.0
  0
LINE
  5
11B
  8
HILFSLINIEN
  6
VOLLINIE
 62
    18
 10
300.9150183512847
 20
106.4851239027145
 30
0.0
 11
312.9297325527286
 21
106.4851239027145
 31
0.0
  0
LINE
  5
11C
  8
HILFSLINIEN
  6
VOLLINIE
 62
    18
 10
299.3073231966978
 20
96.28512390271435
 30
0.0
 11
312.8073231966978
 21
96.28512390271446
 31
0.0
  0
LINE
  5
11D
  8
HILFSLINIEN
  6
VOLLINIE
 62
    18
 10
315.8073231966977
 20
103.4851239027145
 30
0.0
 11
315.8073231966977
 21
105.5031408082561
 31
0.0
  0
ARC
  5
11E
  8
HILFSLINIEN
  6
VOLLINIE
 62
    18
 10
312.8073231966978
 20
103.4851239027145
 30
0.0
 40
2.999999999999966
 50
270.0
 51
0.0
  0
ARC
  5
11F
  8
HILFSLINIEN
  6
VOLLINIE
 62
    18
 10
316.8073231966978
 20
105.5031408082561
 30
0.0
 40
1.000000000000017
 50
97.17650230401597
 51
180.0
  0
ARC
  5
120
  8
HILFSLINIEN
  6
VOLLINIE
 62
    18
 10
316.8073231966979
 20
105.503140808256
 30
0.0
 40
4.000000000000095
 50
97.1765023040142
 51
165.7888657079721
  0
LINE
  5
121
  8
HILFSLINIEN
  6
VOLLINIE
 62
    18
 10
299.3073231966978
 20
100.4851239027145
 30
0.0
 11
294.4548904521965
 21
103.2866772539768
 31
0.0
  0
ARC
  5
122
  8
HILFSLINIEN
  6
VOLLINIE
 62
    18
 10
291.9548904521965
 20
98.9565502350547
 30
0.0
 40
4.999999999999932
 50
59.99999999999963
 51
142.6554156198847
  0
LINE
  5
123
  8
HILFSLINIEN
  6
VOLLINIE
 62
    18
 10
300.9150183512847
 20
106.4851239027145
 30
0.0
 11
293.3073231966978
 21
110.8774287481278
 31
0.0
  0
ARC
  5
124
  8
HILFSLINIEN
  6
VOLLINIE
 62
    18
 10
351.4497579307669
 20
89.28512390271504
 30
0.0
 40
31.49999999999944
 50
75.33732142908664
 51
102.4829224300435
  0
LINE
  5
125
  8
HILFSLINIEN
  6
VOLLINIE
 62
    18
 10
327.5033118286065
 20
119.3209887862102
 30
0.0
 11
343.99626534191
 21
122.9703647097483
 31
0.0
  0
LINE
  5
126
  8
HILFSLINIEN
  6
VOLLINIE
 62
    18
 10
328.1514416189419
 20
116.3918374116856
 30
0.0
 11
344.6443951322454
 21
120.0412133352235
 31
0.0
  0
ARC
  5
127
  8
HILFSLINIEN
  6
VOLLINIE
 62
    18
 10
295.3073231966978
 20
115.7062781017393
 30
0.0
 40
1.99999999999997
 50
73.16154947348555
 51
180.0
  0
ARC
  5
128
  8
HILFSLINIEN
  6
VOLLINIE
 62
    18
 10
366.1811519097807
 20
110.7120391678084
 30
0.0
 40
1.999999999999857
 50
57.404246983843
 51
97.17650230401492
  0
ARC
  5
129
  8
HILFSLINIEN
  6
VOLLINIE
 62
    18
 10
366.1811519097804
 20
86.05820863762077
 30
0.0
 40
2.000000000000151
 50
262.8234976959861
 51
302.5957530161572
  0
LINE
  5
12A
  8
HILFSLINIEN
  6
VOLLINIE
 62
    18
 10
244.5830561548687
 20
91.68457826942925
 30
0.0
 11
255.0836377245901
 21
105.3556695359996
 31
0.0
  0
ARC
  5
12B
  8
HILFSLINIEN
  6
VOLLINIE
 62
    18
 10
235.8593706827609
 20
98.38512390271438
 30
0.0
 40
10.99999999999991
 50
158.9032186839555
 51
201.0967813160444
  0
LINE
  5
12C
  8
HILFSLINIEN
  6
VOLLINIE
 62
    18
 10
287.9798819837281
 20
101.9895862842313
 30
0.0
 11
285.2295823484534
 21
98.38512390271438
 31
0.0
  0
LINE
  5
12D
  8
HILFSLINIEN
  6
VOLLINIE
 62
    18
 10
285.2295823484533
 20
98.38512390271448
 30
0.0
 11
285.4009927940853
 21
98.38512390271448
 31
0.0
  0
ARC
  5
12E
  8
HILFSLINIEN
  6
VOLLINIE
 62
    18
 10
267.651370682761
 20
91.1151239027144
 30
0.0
 40
4.999999999999943
 50
180.0
 51
258.4057898346991
  0
ARC
  5
12F
  8
HILFSLINIEN
  6
VOLLINIE
 62
    18
 10
273.8073231966977
 20
76.11512390271466
 30
0.0
 40
10.00000000000002
 50
289.0112652601376
 51
304.9519506627944
  0
LINE
  5
130
  8
LAYER1
  6
VOLLINIE
 62
     6
 10
273.8073231966977
 20
110.6551239027144
 30
0.0
 11
273.8073231966977
 21
130.6551239027144
 31
0.0
  0
LINE
  5
131
  8
LAYER1
  6
VOLLINIE
 62
     6
 10
263.8073231966978
 20
120.6551239027144
 30
0.0
 11
283.8073231966978
 21
120.6551239027144
 31
0.0
  0
LINE
  5
132
  8
LAYER1
  6
VOLLINIE
 62
     6
 10
272.6509927940852
 20
88.38512390271447
 30
0.0
 11
272.6509927940852
 21
108.3851239027145
 31
0.0
  0
LINE
  5
133
  8
LAYER1
  6
VOLLINIE
 62
     6
 10
262.6509927940853
 20
98.38512390271444
 30
0.0
 11
282.6509927940853
 21
98.38512390271444
 31
0.0
  0
LINE
  5
134
  8
LAYER1
  6
VOLLINIE
 62
     6
 10
273.8073231966977
 20
66.1151239027144
 30
0.0
 11
273.8073231966977
 21
86.11512390271442
 31
0.0
  0
LINE
  5
135
  8
LAYER1
  6
VOLLINIE
 62
     6
 10
207.120303665297
 20
152.5158446347137
 30
0.0
 11
199.5814992841165
 21
127.2151247140812
 31
0.0
  0
LINE
  5
136
  8
LAYER1
  6
VOLLINIE
 62
     6
 10
212.9779877973394
 20
144.5097509174743
 30
0.0
 11
208.8659126803315
 21
130.7093582334929
 31
0.0
  0
LINE
  5
137
  8
LAYER1
  6
VOLLINIE
 62
     6
 10
197.8358902690819
 20
149.021611115302
 30
0.0
 11
193.7238151520743
 21
135.2212184313206
 31
0.0
  0
ARC
  5
138
  8
LAYER1
  6
VOLLINIE
 62
     6
 10
123.4891493882218
 20
-229.4082598416748
 30
0.0
 40
369.9999999999404
 50
73.35738816470734
 51
76.6634304619722
  0
LINE
  5
139
  8
LAYER1
  6
VOLLINIE
 62
     6
 10
207.6219913052629
 20
130.0365584024531
 30
0.0
 11
194.3966149831142
 21
133.9772970562519
 31
0.0
  0
LINE
  5
13A
  8
LAYER1
  6
VOLLINIE
 62
     6
 10
212.3051879662996
 20
145.7536722925429
 30
0.0
 11
199.0798116441506
 21
149.6944109463419
 31
0.0
  0
ARC
  5
13B
  8
LAYER1
  6
VOLLINIE
 62
     6
 10
322.9787732468715
 20
193.2906452665546
 30
0.0
 40
3.249999999999953
 50
302.9792810507841
 51
121.3872095916352
  0
ARC
  5
13C
  8
LAYER1
  6
VOLLINIE
 62
     6
 10
212.9654417755445
 20
140.9657640950755
 30
0.0
 40
0.9999999999998572
 50
73.4076284671746
 51
163.4076284671845
  0
LINE
  5
13D
  8
LAYER1
  6
VOLLINIE
 62
     6
 10
201.3798770914808
 20
149.0090650935072
 30
0.0
 11
196.6966804304444
 21
133.2919512034173
 31
0.0
  0
LINE
  5
13E
  8
LAYER1
  6
VOLLINIE
 62
     6
 10
210.0051225189692
 20
146.4390181453776
 30
0.0
 11
205.3219258579329
 21
130.7219042552876
 31
0.0
  0
LINE
  5
13F
  8
LAYER1
  6
VOLLINIE
 62
     6
 10
201.9548934533134
 20
148.8377286302986
 30
0.0
 11
197.2716967922771
 21
133.1206147402086
 31
0.0
  0
LINE
  5
140
  8
LAYER1
  6
VOLLINIE
 62
     6
 10
209.4301061571366
 20
146.6103546085862
 30
0.0
 11
204.7469094961002
 21
130.8932407184962
 31
0.0
  0
ARC
  5
141
  8
LAYER1
  6
VOLLINIE
 62
     6
 10
194.6821757551284
 20
134.9356576593061
 30
0.0
 40
0.9999999999998481
 50
163.407628467169
 51
253.4076284671896
  0
ARC
  5
142
  8
LAYER1
  6
VOLLINIE
 62
     6
 10
198.794250872136
 20
148.7360503432878
 30
0.0
 40
0.9999999999998246
 50
73.40762846716699
 51
163.4076284671892
  0
ARC
  5
143
  8
LAYER1
  6
VOLLINIE
 62
     6
 10
207.9075520772772
 20
130.9949190055075
 30
0.0
 40
1.000000000000029
 50
253.4076284671826
 51
343.4076284671723
  0
ARC
  5
144
  8
LAYER1
  6
VOLLINIE
 62
     6
 10
212.0196271942849
 20
144.7953116894885
 30
0.0
 40
1.000000000000201
 50
343.4076284671854
 51
73.40762846716476
  0
LINE
  5
145
  8
LAYER1
  6
VOLLINIE
 62
     6
 10
224.859370682761
 20
97.38512390271433
 30
0.0
 11
224.859370682761
 21
97.29772009458004
 31
0.0
  0
ARC
  5
146
  8
LAYER1
  6
VOLLINIE
 62
     6
 10
339.2543693928444
 20
166.6135489085698
 30
0.0
 40
34.50000000000033
 50
122.1301311524979
 51
168.0579564969784
  0
ARC
  5
147
  8
LAYER1
  6
VOLLINIE
 62
     6
 10
316.7450800674815
 20
184.898293754127
 30
0.0
 40
2.500000000000078
 50
342.7515363709491
 51
140.9123554960205
  0
LINE
  5
148
  8
LAYER1
  6
VOLLINIE
 62
     6
 10
323.9264800088642
 20
189.4796230228383
 30
0.0
 11
309.2080905457686
 21
142.0741740161933
 31
0.0
  0
LINE
  5
149
  8
LAYER1
  6
VOLLINIE
 62
     6
 10
319.1326498069732
 20
184.1570038384633
 30
0.0
 11
306.3430068583788
 21
142.9637219149899
 31
0.0
  0
LINE
  5
14A
  8
LAYER1
  6
VOLLINIE
 62
     6
 10
307.4957695722222
 20
123.7688895280795
 30
0.0
 11
313.0780359049019
 21
136.0606877118698
 31
0.0
  0
LINE
  5
14B
  8
LAYER1
  6
VOLLINIE
 62
     6
 10
302.6975320486609
 20
127.7137089634364
 30
0.0
 11
307.6656309066971
 21
138.6531491264044
 31
0.0
  0
LINE
  5
14C
  8
LAYER1
  6
VOLLINIE
 62
     6
 10
311.5870288268773
 20
140.0327020488631
 30
0.0
 11
309.749617231737
 21
140.8671544807582
 31
0.0
  0
ARC
  5
14D
  8
LAYER1
  6
VOLLINIE
 62
     6
 10
310.3465251973926
 20
137.3011913413541
 30
0.0
 40
3.000000000000199
 50
335.5750340669391
 51
65.57503406692697
  0
ARC
  5
14E
  8
LAYER1
  6
VOLLINIE
 62
     6
 10
310.1631184415652
 20
141.7776580499279
 30
0.0
 40
1.000000000000026
 50
162.7515363709517
 51
245.5750340669304
  0
ARC
  5
14F
  8
LAYER1
  6
VOLLINIE
 62
     6
 10
310.1631184415646
 20
141.7776580499277
 30
0.0
 40
3.99999999999942
 50
162.7515363709429
 51
231.3638997749131
  0
ARC
  5
150
  8
LAYER1
  6
VOLLINIE
 62
     6
 10
339.2543693928493
 20
166.613548908568
 30
0.0
 40
31.50000000000545
 50
140.9123554960255
 51
168.0579564969771
  0
LINE
  5
151
  8
LAYER1
  6
VOLLINIE
 62
     6
 10
302.0047227789966
 20
157.230090731184
 30
0.0
 11
305.5018092067633
 21
173.7560051306965
 31
0.0
  0
LINE
  5
152
  8
LAYER1
  6
VOLLINIE
 62
     6
 10
304.9397280125687
 20
156.6090075814339
 30
0.0
 11
308.4368144403357
 21
173.1349219809464
 31
0.0
  0
ARC
  5
153
  8
LAYER1
  6
VOLLINIE
 62
     6
 10
325.8365358004566
 20
188.8865910903077
 30
0.0
 40
1.999999999999214
 50
122.9792810507615
 51
162.7515363709496
  0
LINE
  5
154
  8
LAYER1
  6
VOLLINIE
 62
     6
 10
320.9057514923583
 20
195.8296099220258
 30
0.0
 11
321.2861112476905
 21
196.0650632877851
 31
0.0
  0
LINE
  5
155
  8
LAYER1
  6
VOLLINIE
 62
     6
 10
207.120303665297
 20
44.25440317071499
 30
0.0
 11
199.5814992841165
 21
69.55512309134755
 31
0.0
  0
LINE
  5
156
  8
LAYER1
  6
VOLLINIE
 62
     6
 10
212.9779877973394
 20
52.26049688795447
 30
0.0
 11
208.8659126803315
 21
66.0608895719358
 31
0.0
  0
LINE
  5
157
  8
LAYER1
  6
VOLLINIE
 62
     6
 10
197.8358902690819
 20
47.74863669012673
 30
0.0
 11
193.7238151520743
 21
61.54902937410817
 31
0.0
  0
ARC
  5
158
  8
LAYER1
  6
VOLLINIE
 62
     6
 10
123.4891493882303
 20
426.1785076470719
 30
0.0
 40
369.9999999999077
 50
283.3365695380277
 51
286.6426118352929
  0
LINE
  5
159
  8
LAYER1
  6
VOLLINIE
 62
     6
 10
207.6219913052629
 20
66.73368940297561
 30
0.0
 11
194.3966149831142
 21
62.79295074917685
 31
0.0
  0
LINE
  5
15A
  8
LAYER1
  6
VOLLINIE
 62
     6
 10
212.3051879662996
 20
51.01657551288578
 30
0.0
 11
199.0798116441506
 21
47.07583685908686
 31
0.0
  0
ARC
  5
15B
  8
LAYER1
  6
VOLLINIE
 62
     6
 10
322.9787732468715
 20
3.479602538874098
 30
0.0
 40
3.249999999999955
 50
238.6127904083648
 51
57.02071894921591
  0
LINE
  5
15C
  8
LAYER1
  6
VOLLINIE
 62
     6
 10
211.2139552853274
 20
62.04283950557482
 30
0.0
 11
232.6382107233526
 21
66.08622217883607
 31
0.0
  0
ARC
  5
15D
  8
LAYER1
  6
VOLLINIE
 62
     6
 10
211.3994105487035
 20
61.06018679719509
 30
0.0
 40
0.9999999999999705
 50
100.6876763948087
 51
196.5923715328271
  0
ARC
  5
15E
  8
LAYER1
  6
VOLLINIE
 62
     6
 10
212.9654417755445
 20
55.8044837103532
 30
0.0
 40
0.9999999999998607
 50
196.5923715328155
 51
286.5923715328256
  0
LINE
  5
15F
  8
LAYER1
  6
VOLLINIE
 62
     6
 10
201.3798770914808
 20
47.76118271192147
 30
0.0
 11
196.6966804304444
 21
63.47829660201146
 31
0.0
  0
LINE
  5
160
  8
LAYER1
  6
VOLLINIE
 62
     6
 10
210.0051225189692
 20
50.33122966005118
 30
0.0
 11
205.3219258579329
 21
66.04834355014117
 31
0.0
  0
LINE
  5
161
  8
LAYER1
  6
VOLLINIE
 62
     6
 10
201.9548934533134
 20
47.93251917513013
 30
0.0
 11
197.2716967922771
 21
63.64963306522012
 31
0.0
  0
LINE
  5
162
  8
LAYER1
  6
VOLLINIE
 62
     6
 10
209.4301061571366
 20
50.15989319684252
 30
0.0
 11
204.7469094961002
 21
65.87700708693251
 31
0.0
  0
ARC
  5
163
  8
LAYER1
  6
VOLLINIE
 62
     6
 10
194.6821757551284
 20
61.83459014612266
 30
0.0
 40
0.9999999999998598
 50
106.592371532812
 51
196.5923715328309
  0
ARC
  5
164
  8
LAYER1
  6
VOLLINIE
 62
     6
 10
198.7942508721361
 20
48.03419746214097
 30
0.0
 40
0.9999999999998687
 50
196.5923715328151
 51
286.5923715328306
  0
ARC
  5
165
  8
LAYER1
  6
VOLLINIE
 62
     6
 10
207.9075520772772
 20
65.77532879992131
 30
0.0
 40
1.000000000000015
 50
16.59237153282461
 51
106.5923715328179
  0
ARC
  5
166
  8
LAYER1
  6
VOLLINIE
 62
     6
 10
212.0196271942849
 20
51.9749361159402
 30
0.0
 40
1.000000000000228
 50
286.5923715328364
 51
16.59237153281305
  0
LINE
  5
167
  8
LAYER1
  6
VOLLINIE
 62
     6
 10
224.859370682761
 20
99.38512390271437
 30
0.0
 11
224.859370682761
 21
99.47252771084867
 31
0.0
  0
ARC
  5
168
  8
LAYER1
  6
VOLLINIE
 62
     6
 10
339.2543693928445
 20
30.15669889685895
 30
0.0
 40
34.50000000000041
 50
191.9420435030217
 51
237.869868847502
  0
ARC
  5
169
  8
LAYER1
  6
VOLLINIE
 62
     6
 10
316.7450800674815
 20
11.87195405130171
 30
0.0
 40
2.500000000000076
 50
219.0876445039794
 51
17.24846362905095
  0
LINE
  5
16A
  8
LAYER1
  6
VOLLINIE
 62
     6
 10
323.9264800088642
 20
7.290624782590386
 30
0.0
 11
309.2080905457686
 21
54.69607378923537
 31
0.0
  0
LINE
  5
16B
  8
LAYER1
  6
VOLLINIE
 62
     6
 10
319.1326498069732
 20
12.61324396696545
 30
0.0
 11
306.3430068583788
 21
53.80652589043883
 31
0.0
  0
LINE
  5
16C
  8
LAYER1
  6
VOLLINIE
 62
     6
 10
307.4957695722222
 20
73.00135827734918
 30
0.0
 11
313.0780359049019
 21
60.70956009355888
 31
0.0
  0
LINE
  5
16D
  8
LAYER1
  6
VOLLINIE
 62
     6
 10
302.6975320486609
 20
69.05653884199226
 30
0.0
 11
307.6656309066971
 21
58.11709867902433
 31
0.0
  0
LINE
  5
16E
  8
LAYER1
  6
VOLLINIE
 62
     6
 10
311.5870288268773
 20
56.73754575656562
 30
0.0
 11
309.749617231737
 21
55.90309332467054
 31
0.0
  0
ARC
  5
16F
  8
LAYER1
  6
VOLLINIE
 62
     6
 10
310.3465251973927
 20
59.46905646407459
 30
0.0
 40
3.000000000000166
 50
294.4249659330722
 51
24.42496593306122
  0
ARC
  5
170
  8
LAYER1
  6
VOLLINIE
 62
     6
 10
310.1631184415652
 20
54.99258975550082
 30
0.0
 40
1.00000000000003
 50
114.4249659330695
 51
197.2484636290487
  0
ARC
  5
171
  8
LAYER1
  6
VOLLINIE
 62
     6
 10
310.1631184415646
 20
54.99258975550103
 30
0.0
 40
3.999999999999432
 50
128.636100225087
 51
197.2484636290574
  0
ARC
  5
172
  8
LAYER1
  6
VOLLINIE
 62
     6
 10
339.2543693928491
 20
30.15669889686061
 30
0.0
 40
31.50000000000528
 50
191.9420435030229
 51
219.0876445039747
  0
LINE
  5
173
  8
LAYER1
  6
VOLLINIE
 62
     6
 10
302.0047227789966
 20
39.54015707424472
 30
0.0
 11
305.5018092067633
 21
23.01424267473217
 31
0.0
  0
LINE
  5
174
  8
LAYER1
  6
VOLLINIE
 62
     6
 10
304.9397280125687
 20
40.1612402239948
 30
0.0
 11
308.4368144403357
 21
23.63532582448229
 31
0.0
  0
ARC
  5
175
  8
LAYER1
  6
VOLLINIE
 62
     6
 10
325.8365358004565
 20
7.883656715120971
 30
0.0
 40
1.999999999999143
 50
197.2484636290496
 51
237.0207189492392
  0
LINE
  5
176
  8
LAYER1
  6
VOLLINIE
 62
     6
 10
320.9057514923583
 20
0.9406378834028842
 30
0.0
 11
321.2861112476905
 21
0.705184517643648
 31
0.0
  0
LINE
  5
177
  8
LAYER1
  6
VOLLINIE
 62
     6
 10
230.9341133760054
 20
136.6551239027144
 30
0.0
 11
213.2510025475589
 21
141.9241246981296
 31
0.0
  0
LINE
  5
178
  8
LAYER1
  6
VOLLINIE
 62
     6
 10
241.6262934579928
 20
136.5995423204167
 30
0.0
 11
213.1493242605479
 21
145.0847672793068
 31
0.0
  0
ARC
  5
179
  8
LAYER1
  6
VOLLINIE
 62
     6
 10
242.5219506133323
 20
169.8173785839196
 30
0.0
 40
60.79999999999948
 50
318.7045345382288
 51
348.0517719481311
  0
ARC
  5
17A
  8
LAYER1
  6
VOLLINIE
 62
     6
 10
242.5219506133316
 20
169.8173785839203
 30
0.0
 40
63.80000000000032
 50
319.4075965118022
 51
348.0517719481307
  0
LINE
  5
17B
  8
LAYER1
  6
VOLLINIE
 62
     6
 10
302.6975320486609
 20
127.7137089634364
 30
0.0
 11
298.3471359911692
 21
124.6019976466028
 31
0.0
  0
LINE
  5
17C
  8
LAYER1
  6
VOLLINIE
 62
     6
 10
307.4957695722222
 20
123.7688895280795
 30
0.0
 11
304.4082655905502
 21
121.5604880507029
 31
0.0
  0
ARC
  5
17D
  8
LAYER1
  6
VOLLINIE
 62
     6
 10
242.5219506133323
 20
26.9528692215091
 30
0.0
 40
60.79999999999942
 50
11.94822805186892
 51
41.29546546177144
  0
ARC
  5
17E
  8
LAYER1
  6
VOLLINIE
 62
     6
 10
242.5219506133319
 20
26.95286922150854
 30
0.0
 40
63.80000000000004
 50
11.94822805186926
 51
40.59240348819802
  0
LINE
  5
17F
  8
LAYER1
  6
VOLLINIE
 62
     6
 10
302.6975320486609
 20
69.05653884199226
 30
0.0
 11
298.3471359911691
 21
72.16825015882597
 31
0.0
  0
LINE
  5
180
  8
LAYER1
  6
VOLLINIE
 62
     6
 10
307.4957695722222
 20
73.00135827734918
 30
0.0
 11
304.40826559055
 21
75.20975975472588
 31
0.0
  0
LINE
  5
181
  8
LAYER1
  6
VOLLINIE
 62
     6
 10
230.9341133760056
 20
60.11512390271442
 30
0.0
 11
213.2510025475589
 21
54.84612310729908
 31
0.0
  0
LINE
  5
182
  8
LAYER1
  6
VOLLINIE
 62
     6
 10
241.6262934579931
 20
60.17070548501208
 30
0.0
 11
213.1493242605479
 21
51.6854805261219
 31
0.0
  0
LINE
  5
183
  8
LAYER1
  6
VOLLINIE
 62
     6
 10
211.2139552853274
 20
134.7274082998539
 30
0.0
 11
232.6382107233526
 21
130.6840256265927
 31
0.0
  0
ARC
  5
184
  8
LAYER1
  6
VOLLINIE
 62
     6
 10
211.3994105487035
 20
135.7100610082337
 30
0.0
 40
0.9999999999999643
 50
163.4076284671729
 51
259.3123236051911
  0
LINE
  5
185
  8
LAYER1
  6
VOLLINIE
 62
     6
 10
263.8073231966977
 20
76.1151239027144
 30
0.0
 11
283.8073231966977
 21
76.1151239027144
 31
0.0
  0
ARC
  5
186
  8
LAYER1
  6
VOLLINIE
 62
    18
 10
192.8593706827609
 20
-45.21512560563266
 30
0.0
 40
4.499999999999964
 50
90.0
 51
0.0
  0
LINE
  5
187
  8
BEMESSUNG
  6
VOLLINIE
 62
     6
 10
224.859370682761
 20
95.77372009458004
 30
0.0
 11
224.859370682761
 21
96.06448794734978
 31
0.0
  0
VIEWPORT
  5
61
 67
     1
  8
0
 10
0.0
 20
0.0
 30
0.0
 40
1.0
 41
1.0
 68
     1
 69
     1
1001
ACAD
1000
MVIEW
1002
{
1070
    16
1010
0.0
1020
0.0
1030
0.0
1020
0.0
1030
0.0
1010
0.0
1020
0.0
1030
1.0
1020
0.0
1030
1.0
1040
0.0
1040
1.0
1040
0.0
1040
0.0
1040
50.0
1040
0.0
1040
0.0
1070
     0
1070
   100
1070
     0
1070
     3
1070
     0
1070
     0
1070
     0
1070
     0
1040
0.0
1040
0.0
1040
0.0
1040
0.5
1040
0.5
1040
0.0
1040
0.0
1070
     0
1002
{
1002
}
1002
}
  0
ENDSEC
  0
EOF
