  0
SECTION
  2
HEADER
  9
$ACADVER
  1
AC1009
  9
$DWGCODEPAGE
  3
ansi_1252
  9
$INSBASE
 10
0.0
 20
0.0
 30
0.0
  9
$EXTMIN
 10
-5.500000000000001
 20
-81.24421919853384
 30
-0.0000000000000011
  9
$EXTMAX
 10
132.2099658085465
 20
19.82958925157783
 30
19.82958925157783
  9
$LIMMIN
 10
0.0
 20
0.0
  9
$LIMMAX
 10
12.0
 20
9.0
  9
$ORTHOMODE
 70
     0
  9
$REGENMODE
 70
     1
  9
$FILLMODE
 70
     1
  9
$QTEXTMODE
 70
     0
  9
$MIRRTEXT
 70
     1
  9
$DRAGMODE
 70
     2
  9
$LTSCALE
 40
1.0
  9
$OSMODE
 70
    37
  9
$ATTMODE
 70
     1
  9
$TEXTSIZE
 40
0.2
  9
$TRACEWID
 40
0.05
  9
$TEXTSTYLE
  7
STANDARD
  9
$CLAYER
  8
0
  9
$CELTYPE
  6
BYLAYER
  9
$CECOLOR
 62
   256
  9
$DIMSCALE
 40
1.0
  9
$DIMASZ
 40
0.18
  9
$DIMEXO
 40
0.0625
  9
$DIMDLI
 40
0.38
  9
$DIMRND
 40
0.0
  9
$DIMDLE
 40
0.0
  9
$DIMEXE
 40
0.18
  9
$DIMTP
 40
0.0
  9
$DIMTM
 40
0.0
  9
$DIMTXT
 40
0.18
  9
$DIMCEN
 40
0.09
  9
$DIMTSZ
 40
0.0
  9
$DIMTOL
 70
     0
  9
$DIMLIM
 70
     0
  9
$DIMTIH
 70
     1
  9
$DIMTOH
 70
     1
  9
$DIMSE1
 70
     0
  9
$DIMSE2
 70
     0
  9
$DIMTAD
 70
     0
  9
$DIMZIN
 70
     0
  9
$DIMBLK
  1

  9
$DIMASO
 70
     1
  9
$DIMSHO
 70
     1
  9
$DIMPOST
  1

  9
$DIMAPOST
  1

  9
$DIMALT
 70
     0
  9
$DIMALTD
 70
     2
  9
$DIMALTF
 40
25.4
  9
$DIMLFAC
 40
1.0
  9
$DIMTOFL
 70
     0
  9
$DIMTVP
 40
0.0
  9
$DIMTIX
 70
     0
  9
$DIMSOXD
 70
     0
  9
$DIMSAH
 70
     0
  9
$DIMBLK1
  1

  9
$DIMBLK2
  1

  9
$DIMSTYLE
  2
STANDARD
  9
$DIMCLRD
 70
     0
  9
$DIMCLRE
 70
     0
  9
$DIMCLRT
 70
     0
  9
$DIMTFAC
 40
1.0
  9
$DIMGAP
 40
0.09
  9
$LUNITS
 70
     2
  9
$LUPREC
 70
     4
  9
$SKETCHINC
 40
0.1
  9
$FILLETRAD
 40
0.5
  9
$AUNITS
 70
     0
  9
$AUPREC
 70
     0
  9
$MENU
  1
.
  9
$ELEVATION
 40
0.0
  9
$PELEVATION
 40
0.0
  9
$THICKNESS
 40
0.0
  9
$LIMCHECK
 70
     0
  9
$CHAMFERA
 40
0.5
  9
$CHAMFERB
 40
0.5
  9
$SKPOLY
 70
     0
  9
$TDCREATE
 40
2305814.704930556
  9
$TDUPDATE
 40
2305814.704930567
  9
$TDINDWG
 40
0.0000000116
  9
$TDUSRTIMER
 40
0.0000000116
  9
$USRTIMER
 70
     1
  9
$ANGBASE
 50
0.0
  9
$ANGDIR
 70
     0
  9
$PDMODE
 70
     0
  9
$PDSIZE
 40
0.0
  9
$PLINEWID
 40
0.0
  9
$COORDS
 70
     1
  9
$SPLFRAME
 70
     0
  9
$SPLINETYPE
 70
     6
  9
$SPLINESEGS
 70
     8
  9
$ATTDIA
 70
     0
  9
$ATTREQ
 70
     1
  9
$HANDLING
 70
     1
  9
$HANDSEED
  5
3F1
  9
$SURFTAB1
 70
     6
  9
$SURFTAB2
 70
     6
  9
$SURFTYPE
 70
     6
  9
$SURFU
 70
     6
  9
$SURFV
 70
     6
  9
$UCSNAME
  2

  9
$UCSORG
 10
0.0
 20
0.0
 30
0.0
  9
$UCSXDIR
 10
1.0
 20
0.0
 30
0.0
  9
$UCSYDIR
 10
0.0
 20
1.0
 30
0.0
  9
$PUCSNAME
  2

  9
$PUCSORG
 10
0.0
 20
0.0
 30
0.0
  9
$PUCSXDIR
 10
1.0
 20
0.0
 30
0.0
  9
$PUCSYDIR
 10
0.0
 20
1.0
 30
0.0
  9
$USERI1
 70
     0
  9
$USERI2
 70
     0
  9
$USERI3
 70
     0
  9
$USERI4
 70
     0
  9
$USERI5
 70
     0
  9
$USERR1
 40
0.0
  9
$USERR2
 40
0.0
  9
$USERR3
 40
0.0
  9
$USERR4
 40
0.0
  9
$USERR5
 40
0.0
  9
$WORLDVIEW
 70
     1
  9
$SHADEDGE
 70
     3
  9
$SHADEDIF
 70
    70
  9
$TILEMODE
 70
     1
  9
$MAXACTVP
 70
    64
  9
$PLIMCHECK
 70
     0
  9
$PEXTMIN
 10
1.000000000000000E+20
 20
1.000000000000000E+20
 30
1.000000000000000E+20
  9
$PEXTMAX
 10
-1.000000000000000E+20
 20
-1.000000000000000E+20
 30
-1.000000000000000E+20
  9
$PLIMMIN
 10
0.0
 20
0.0
  9
$PLIMMAX
 10
12.0
 20
9.0
  9
$UNITMODE
 70
     0
  9
$VISRETAIN
 70
     1
  9
$PLINEGEN
 70
     0
  9
$PSLTSCALE
 70
     1
  0
ENDSEC
  0
SECTION
  2
TABLES
  0
TABLE
  2
VPORT
 70
     1
  0
VPORT
  2
*ACTIVE
 70
     0
 10
0.0
 20
0.0
 11
1.0
 21
1.0
 12
0.0
 22
0.0
 13
0.0
 23
0.0
 14
0.5
 24
0.5
 15
0.5
 25
0.5
 16
0.0
 26
0.0
 36
1.0
 17
41.52864920631361
 27
-28.45819557589824
 37
0.0
 40
59.52338042983192
 41
1.611777484546179
 42
50.0
 43
0.0
 44
0.0
 50
0.0
 51
0.0
 71
     0
 72
   100
 73
     1
 74
     3
 75
     0
 76
     0
 77
     0
 78
     0
  0
ENDTAB
  0
TABLE
  2
LTYPE
 70
    12
  0
LTYPE
  2
CONTINUOUS
 70
     0
  3
Solid line
 72
    65
 73
     0
 40
0.0
  0
LTYPE
  2
VOLLINIE
 70
     0
  3
____________________
 72
    65
 73
     0
 40
0.0
  0
LTYPE
  2
ZWEISTRICHPUNKT
 70
     0
  3
__ __ . __ __ . __ 
 72
    65
 73
     6
 40
22.225
 49
0.25
 49
-0.125
 49
0.25
 49
-0.125
 49
0.0
 49
-0.125
  0
LTYPE
  2
STRICHPUNKT_LANG
 70
     0
  3
___ _ ___ _ ___ _ _
 72
    65
 73
     4
 40
28.575
 49
0.75
 49
-0.125
 49
0.125
 49
-0.125
  0
LTYPE
  2
STRICHPUNKT
 70
     0
  3
_._._._._._._._._._
 72
    65
 73
     4
 40
12.7
 49
0.25
 49
-0.125
 49
0.0
 49
-0.125
  0
LTYPE
  2
STRICHLINIE_LANG
 70
     0
  3
_ _ _ _ _ _ _ _ _ _
 72
    65
 73
     2
 40
9.524999999999999
 49
0.25
 49
-0.125
  0
LTYPE
  2
STRICHZWEIPKT__KURZ
 70
     0
  3
__..__..__..__..__.
 72
    65
 73
     6
 40
15.875
 49
0.25
 49
-0.125
 49
0.0
 49
-0.125
 49
0.0
 49
-0.125
  0
LTYPE
  2
GEPUNKTET
 70
     0
  3
...................
 72
    65
 73
     2
 40
3.175
 49
0.0
 49
-0.125
  0
LTYPE
  2
STRICHLINIE
 70
     0
  3
__ __ __ __ __ __ _
 72
    65
 73
     2
 40
4.762499999999999
 49
0.125
 49
-0.0625
  0
LTYPE
  2
STRICHZWEIPUNKT
 70
     0
  3
___ _ _ ___ _ _ ___
 72
    65
 73
     6
 40
31.75
 49
0.625
 49
-0.125
 49
0.125
 49
-0.125
 49
0.125
 49
-0.125
  0
LTYPE
  2
STRICHZWEIPKT__LANG
 70
     0
  3
________ _ _ ______
 72
    65
 73
     6
 40
37.2745
 49
1.0
 49
-0.0725
 49
0.125
 49
-0.0725
 49
0.125
 49
-0.0725
  0
LTYPE
  2
STRICHLINIE_KURZ
 70
     0
  3
_ _ _ _ _ _ _ _ _ _
 72
    65
 73
     2
 40
3.682999999999999
 49
0.0725
 49
-0.0725
  0
ENDTAB
  0
TABLE
  2
LAYER
 70
     4
  0
LAYER
  2
0
 70
     0
 62
     7
  6
CONTINUOUS
  0
LAYER
  2
IGES-IMPORT_CS_CT-22-3
 70
     0
 62
    -7
  6
CONTINUOUS
  0
LAYER
  2
BLATTANSICHT_1
 70
     0
 62
     7
  6
CONTINUOUS
  0
LAYER
  2
BLATTANSICHT_1_GEOMETRIEAN
 70
     0
 62
     7
  6
CONTINUOUS
  0
ENDTAB
  0
TABLE
  2
STYLE
 70
     1
  0
STYLE
  2
STANDARD
 70
     0
 40
0.0
 41
1.0
 50
0.0
 71
     0
 42
0.2
  3
txt
  4

  0
ENDTAB
  0
TABLE
  2
VIEW
 70
     0
  0
ENDTAB
  0
TABLE
  2
UCS
 70
     0
  0
ENDTAB
  0
TABLE
  2
APPID
 70
     2
  0
APPID
  2
ACAD
 70
     0
  0
APPID
  2
PUNCH__SOFTWARE_VIACAD
 70
     0
  0
ENDTAB
  0
TABLE
  2
DIMSTYLE
 70
     1
  0
DIMSTYLE
  2
STANDARD
 70
     0
  3

  4

  5

  6

  7

 40
1.0
 41
0.18
 42
0.0625
 43
0.38
 44
0.18
 45
0.0
 46
0.0
 47
0.0
 48
0.0
140
0.18
141
0.09
142
0.0
143
25.4
144
1.0
145
0.0
146
1.0
147
0.09
 71
     0
 72
     0
 73
     1
 74
     1
 75
     0
 76
     0
 77
     0
 78
     0
170
     0
171
     2
172
     0
173
     0
174
     0
175
     0
176
     0
177
     0
178
     0
  0
ENDTAB
  0
ENDSEC
  0
SECTION
  2
BLOCKS
  0
BLOCK
  8
0
  2
$MODEL_SPACE
 70
     0
 10
0.0
 20
0.0
 30
0.0
  3
$MODEL_SPACE
  1

  0
ENDBLK
  5
21
  8
0
  0
BLOCK
 67
     1
  8
0
  2
$PAPER_SPACE
 70
     0
 10
0.0
 20
0.0
 30
0.0
  3
$PAPER_SPACE
  1

  0
ENDBLK
  5
1D
 67
     1
  8
0
  0
ENDSEC
  0
SECTION
  2
ENTITIES
  0
LINE
  5
6D
  8
BLATTANSICHT_1_GEOMETRIEAN
  6
VOLLINIE
 62
    18
 10
26.79277440415962
 20
-48.38548301265814
 30
0.0
 11
26.78574624049479
 21
-48.35867642804867
 31
0.0
  0
LINE
  5
6E
  8
BLATTANSICHT_1_GEOMETRIEAN
  6
VOLLINIE
 62
    18
 10
26.82636238341448
 20
-48.53182511353179
 30
0.0
 11
26.79277440415962
 21
-48.38548301265814
 31
0.0
  0
LINE
  5
6F
  8
BLATTANSICHT_1_GEOMETRIEAN
  6
VOLLINIE
 62
    18
 10
23.32307018719389
 20
-43.68483375278382
 30
0.0
 11
23.25000000180434
 21
-43.64113271011343
 31
0.0
  0
LINE
  5
70
  8
BLATTANSICHT_1_GEOMETRIEAN
  6
VOLLINIE
 62
    18
 10
23.35693578299847
 20
-43.7050877296887
 30
0.0
 11
23.35690066848374
 21
-43.70506672877158
 31
0.0
  0
LINE
  5
71
  8
BLATTANSICHT_1_GEOMETRIEAN
  6
VOLLINIE
 62
    18
 10
23.25000000180434
 20
-43.64113271011343
 30
0.0
 11
23.04820167648754
 21
-43.52873178043715
 31
0.0
  0
LINE
  5
72
  8
BLATTANSICHT_1_GEOMETRIEAN
  6
VOLLINIE
 62
    18
 10
22.67303177421127
 20
-43.34071613744445
 30
0.0
 11
22.66963696455194
 21
-43.33901483540219
 31
0.0
  0
LINE
  5
73
  8
BLATTANSICHT_1_GEOMETRIEAN
  6
VOLLINIE
 62
    18
 10
22.66963696455194
 20
-43.33901483540219
 30
0.0
 11
22.63470258686834
 21
-43.32283369893412
 31
0.0
  0
LINE
  5
74
  8
BLATTANSICHT_1_GEOMETRIEAN
  6
VOLLINIE
 62
    18
 10
23.80182327469607
 20
-43.99268290670552
 30
0.0
 11
23.78443451028438
 21
-43.98122481186466
 31
0.0
  0
LINE
  5
75
  8
BLATTANSICHT_1_GEOMETRIEAN
  6
VOLLINIE
 62
    18
 10
23.83330373577935
 20
-44.01484639490887
 30
0.0
 11
23.80182327469607
 21
-43.99268290670552
 31
0.0
  0
LINE
  5
76
  8
BLATTANSICHT_1_GEOMETRIEAN
  6
VOLLINIE
 62
    18
 10
26.63292387412473
 20
-47.81869578498081
 30
0.0
 11
26.57365825875205
 21
-47.64366224148307
 31
0.0
  0
LINE
  5
77
  8
BLATTANSICHT_1_GEOMETRIEAN
  6
VOLLINIE
 62
    18
 10
26.65849640255546
 20
-47.9026479281425
 30
0.0
 11
26.63292387412473
 21
-47.81869578498081
 31
0.0
  0
LINE
  5
78
  8
BLATTANSICHT_1_GEOMETRIEAN
  6
VOLLINIE
 62
    18
 10
26.9076625551097
 20
-48.96306475248539
 30
0.0
 11
26.9002317290608
 21
-48.92364950063986
 31
0.0
  0
LINE
  5
79
  8
BLATTANSICHT_1_GEOMETRIEAN
  6
VOLLINIE
 62
    18
 10
26.91124104082692
 20
-48.98588582599037
 30
0.0
 11
26.9076625551097
 21
-48.96306475248539
 31
0.0
  0
LINE
  5
7A
  8
BLATTANSICHT_1_GEOMETRIEAN
  6
VOLLINIE
 62
    18
 10
26.99644289806773
 20
-49.90536029840923
 30
0.0
 11
26.99096256252604
 21
-49.76824730778939
 31
0.0
  0
LINE
  5
7B
  8
BLATTANSICHT_1_GEOMETRIEAN
  6
VOLLINIE
 62
    18
 10
26.99999999238748
 20
-50.13632323758055
 30
0.0
 11
26.99644289806773
 21
-49.90536029840923
 31
0.0
  0
LINE
  5
7C
  8
BLATTANSICHT_1_GEOMETRIEAN
  6
VOLLINIE
 62
    18
 10
26.21372468538043
 20
-46.79328556925648
 30
0.0
 11
26.11456716709742
 21
-46.60114273372589
 31
0.0
  0
LINE
  5
7D
  8
BLATTANSICHT_1_GEOMETRIEAN
  6
VOLLINIE
 62
    18
 10
26.27990473628332
 20
-46.92962840179215
 30
0.0
 11
26.21372468538043
 21
-46.79328556925648
 31
0.0
  0
LINE
  5
7E
  8
BLATTANSICHT_1_GEOMETRIEAN
  6
VOLLINIE
 62
    18
 10
25.99519052860076
 20
-46.38632323758052
 30
0.0
 11
25.93342098134865
 21
-46.28131422597745
 31
0.0
  0
LINE
  5
7F
  8
BLATTANSICHT_1_GEOMETRIEAN
  6
VOLLINIE
 62
    18
 10
26.11456716709742
 20
-46.60114273372589
 30
0.0
 11
25.99519052860076
 21
-46.38632323758052
 31
0.0
  0
LINE
  5
80
  8
BLATTANSICHT_1_GEOMETRIEAN
  6
VOLLINIE
 62
    18
 10
25.75201788937586
 20
-45.99358594037673
 30
0.0
 11
25.73680452063692
 21
-45.9707177144812
 31
0.0
  0
LINE
  5
81
  8
BLATTANSICHT_1_GEOMETRIEAN
  6
VOLLINIE
 62
    18
 10
25.93342098134865
 20
-46.28131422597745
 30
0.0
 11
25.75201788937586
 21
-45.99358594037673
 31
0.0
  0
LINE
  5
82
  8
BLATTANSICHT_1_GEOMETRIEAN
  6
VOLLINIE
 62
    18
 10
25.52505683500341
 20
-45.66992758363325
 30
0.0
 11
25.48512920481926
 21
-45.61656346473611
 31
0.0
  0
LINE
  5
83
  8
BLATTANSICHT_1_GEOMETRIEAN
  6
VOLLINIE
 62
    18
 10
25.48512920481926
 20
-45.61656346473611
 30
0.0
 11
25.2985172649256
 21
-45.37951784626151
 31
0.0
  0
LINE
  5
84
  8
BLATTANSICHT_1_GEOMETRIEAN
  6
VOLLINIE
 62
    18
 10
25.2985172649256
 20
-45.37951784626151
 30
0.0
 11
25.19553687512776
 21
-45.25668598604872
 31
0.0
  0
LINE
  5
85
  8
BLATTANSICHT_1_GEOMETRIEAN
  6
VOLLINIE
 62
    18
 10
25.19553687512776
 20
-45.25668598604872
 30
0.0
 11
25.05754498565462
 21
-45.10008518375083
 31
0.0
  0
LINE
  5
86
  8
BLATTANSICHT_1_GEOMETRIEAN
  6
VOLLINIE
 62
    18
 10
25.05754498565462
 20
-45.10008518375083
 30
0.0
 11
24.88433942320078
 21
-44.91531864285858
 31
0.0
  0
LINE
  5
87
  8
BLATTANSICHT_1_GEOMETRIEAN
  6
VOLLINIE
 62
    18
 10
24.88433942320078
 20
-44.91531864285858
 30
0.0
 11
24.80330086614148
 21
-44.83302237258055
 31
0.0
  0
LINE
  5
88
  8
BLATTANSICHT_1_GEOMETRIEAN
  6
VOLLINIE
 62
    18
 10
24.80330086614148
 20
-44.83302237258055
 30
0.0
 11
24.55271732756664
 21
-44.59375635842559
 31
0.0
  0
LINE
  5
89
  8
BLATTANSICHT_1_GEOMETRIEAN
  6
VOLLINIE
 62
    18
 10
24.55271732756664
 20
-44.59375635842559
 30
0.0
 11
24.53669197341889
 21
-44.57918962688803
 31
0.0
  0
LINE
  5
8A
  8
BLATTANSICHT_1_GEOMETRIEAN
  6
VOLLINIE
 62
    18
 10
26.97688000332344
 20
-49.54788002098764
 30
0.0
 11
26.96800632243025
 21
-49.44431054160574
 31
0.0
  0
LINE
  5
8B
  8
BLATTANSICHT_1_GEOMETRIEAN
  6
VOLLINIE
 62
    18
 10
26.9820808229298
 20
-49.64291659200642
 30
0.0
 11
26.97688000332344
 21
-49.54788002098764
 31
0.0
  0
LINE
  5
8C
  8
BLATTANSICHT_1_GEOMETRIEAN
  6
VOLLINIE
 62
    18
 10
26.96800632243025
 20
-49.44431054160574
 30
0.0
 11
26.963912989961
 21
-49.40147435410995
 31
0.0
  0
LINE
  5
8D
  8
BLATTANSICHT_1_GEOMETRIEAN
  6
VOLLINIE
 62
    18
 10
26.99096256252604
 20
-49.76824730778939
 30
0.0
 11
26.96800632243025
 21
-49.44431054160574
 31
0.0
  0
LINE
  5
8E
  8
BLATTANSICHT_1_GEOMETRIEAN
  6
VOLLINIE
 62
    18
 10
26.91894539673168
 20
-49.03666456165381
 30
0.0
 11
26.91124104082692
 21
-48.98588582599037
 31
0.0
  0
LINE
  5
8F
  8
BLATTANSICHT_1_GEOMETRIEAN
  6
VOLLINIE
 62
    18
 10
26.91124104082692
 20
-48.98588582599037
 30
0.0
 11
26.85615450075234
 21
-48.67447818277453
 31
0.0
  0
LINE
  5
90
  8
BLATTANSICHT_1_GEOMETRIEAN
  6
VOLLINIE
 62
    18
 10
26.85615450075234
 20
-48.67447818277453
 30
0.0
 11
26.82636238341448
 21
-48.53182511353177
 31
0.0
  0
LINE
  5
91
  8
BLATTANSICHT_1_GEOMETRIEAN
  6
VOLLINIE
 62
    18
 10
26.82636238341448
 20
-48.53182511353177
 30
0.0
 11
26.77563585343345
 21
-48.31557533317469
 31
0.0
  0
LINE
  5
92
  8
BLATTANSICHT_1_GEOMETRIEAN
  6
VOLLINIE
 62
    18
 10
26.77563585343345
 20
-48.31557533317469
 30
0.0
 11
26.71369232401362
 21
-48.08385081203988
 31
0.0
  0
LINE
  5
93
  8
BLATTANSICHT_1_GEOMETRIEAN
  6
VOLLINIE
 62
    18
 10
26.71369232401362
 20
-48.08385081203988
 30
0.0
 11
26.67748546176823
 21
-47.96061589300783
 31
0.0
  0
LINE
  5
94
  8
BLATTANSICHT_1_GEOMETRIEAN
  6
VOLLINIE
 62
    18
 10
26.67748546176823
 20
-47.96061589300783
 30
0.0
 11
26.57365825875205
 21
-47.64366224148306
 31
0.0
  0
LINE
  5
95
  8
BLATTANSICHT_1_GEOMETRIEAN
  6
VOLLINIE
 62
    18
 10
26.57365825875205
 20
-47.64366224148306
 30
0.0
 11
26.56180301101528
 21
-47.61027133061444
 31
0.0
  0
LINE
  5
96
  8
BLATTANSICHT_1_GEOMETRIEAN
  6
VOLLINIE
 62
    18
 10
26.40679138480463
 20
-47.21292918788541
 30
0.0
 11
26.27990473628332
 21
-46.92962840179215
 31
0.0
  0
LINE
  5
97
  8
BLATTANSICHT_1_GEOMETRIEAN
  6
VOLLINIE
 62
    18
 10
26.42909595863161
 20
-47.26619620222321
 30
0.0
 11
26.40679138480463
 21
-47.21292918788541
 31
0.0
  0
LINE
  5
98
  8
BLATTANSICHT_1_GEOMETRIEAN
  6
VOLLINIE
 62
    18
 10
26.21372468538043
 20
-46.79328556925648
 30
0.0
 11
26.1825489343994
 21
-46.73139449496875
 31
0.0
  0
LINE
  5
99
  8
BLATTANSICHT_1_GEOMETRIEAN
  6
VOLLINIE
 62
    18
 10
26.1825489343994
 20
-46.73139449496875
 30
0.0
 11
26.16712790984448
 21
-46.70299250088313
 31
0.0
  0
LINE
  5
9A
  8
BLATTANSICHT_1_GEOMETRIEAN
  6
VOLLINIE
 62
    18
 10
25.92092404574311
 20
-46.26149250288582
 30
0.0
 11
25.89480123566773
 21
-46.21758400677125
 31
0.0
  0
LINE
  5
9B
  8
BLATTANSICHT_1_GEOMETRIEAN
  6
VOLLINIE
 62
    18
 10
25.89480123566773
 20
-46.21758400677125
 30
0.0
 11
25.75201788937587
 21
-45.99358594037673
 31
0.0
  0
LINE
  5
9C
  8
BLATTANSICHT_1_GEOMETRIEAN
  6
VOLLINIE
 62
    18
 10
25.68974410515823
 20
-45.90386782902794
 30
0.0
 11
25.56762746073182
 21
-45.7279338491063
 31
0.0
  0
LINE
  5
9D
  8
BLATTANSICHT_1_GEOMETRIEAN
  6
VOLLINIE
 62
    18
 10
25.56762746073182
 20
-45.7279338491063
 30
0.0
 11
25.53267084032266
 21
-45.68074336964479
 31
0.0
  0
LINE
  5
9E
  8
BLATTANSICHT_1_GEOMETRIEAN
  6
VOLLINIE
 62
    18
 10
25.20647983769114
 20
-45.26973841720127
 30
0.0
 11
25.20304474471559
 21
-45.26546287802881
 31
0.0
  0
LINE
  5
9F
  8
BLATTANSICHT_1_GEOMETRIEAN
  6
VOLLINIE
 62
    18
 10
25.20304474471559
 20
-45.26546287802881
 30
0.0
 11
25.19553687512776
 21
-45.25668598604872
 31
0.0
  0
LINE
  5
A0
  8
BLATTANSICHT_1_GEOMETRIEAN
  6
VOLLINIE
 62
    18
 10
24.20192854442326
 20
-44.29321892863801
 30
0.0
 11
23.96850392933725
 21
-44.11282984624681
 31
0.0
  0
LINE
  5
A1
  8
BLATTANSICHT_1_GEOMETRIEAN
  6
VOLLINIE
 62
    18
 10
24.25824940332089
 20
-44.33899086675119
 30
0.0
 11
24.20192854442326
 21
-44.29321892863801
 31
0.0
  0
LINE
  5
A2
  8
BLATTANSICHT_1_GEOMETRIEAN
  6
VOLLINIE
 62
    18
 10
23.83330373577934
 20
-44.01484639490887
 30
0.0
 11
23.66798683767735
 21
-43.90110987132265
 31
0.0
  0
LINE
  5
A3
  8
BLATTANSICHT_1_GEOMETRIEAN
  6
VOLLINIE
 62
    18
 10
23.96850392933725
 20
-44.11282984624681
 30
0.0
 11
23.83330373577934
 21
-44.01484639490887
 31
0.0
  0
LINE
  5
A4
  8
BLATTANSICHT_1_GEOMETRIEAN
  6
VOLLINIE
 62
    18
 10
24.49114305398678
 20
-44.53989680622015
 30
0.0
 11
24.32090707491502
 21
-44.39098991590711
 31
0.0
  0
LINE
  5
A5
  8
BLATTANSICHT_1_GEOMETRIEAN
  6
VOLLINIE
 62
    18
 10
24.32090707491502
 20
-44.39098991590711
 30
0.0
 11
24.27071724899137
 21
-44.34974626622395
 31
0.0
  0
LINE
  5
A6
  8
BLATTANSICHT_1_GEOMETRIEAN
  6
VOLLINIE
 62
    18
 10
23.44824122179762
 20
-43.75969471960843
 30
0.0
 11
23.35722988370601
 21
-43.70423355957364
 31
0.0
  0
LINE
  5
A7
  8
BLATTANSICHT_1_GEOMETRIEAN
  6
VOLLINIE
 62
    18
 10
23.66798683767735
 20
-43.90110987132265
 30
0.0
 11
23.44824122179762
 21
-43.75969471960843
 31
0.0
  0
LINE
  5
A8
  8
BLATTANSICHT_1_GEOMETRIEAN
  6
VOLLINIE
 62
    18
 10
23.04820167648754
 20
-43.52873178043715
 30
0.0
 11
23.03676491848279
 21
-43.52260311098555
 31
0.0
  0
LINE
  5
A9
  8
BLATTANSICHT_1_GEOMETRIEAN
  6
VOLLINIE
 62
    18
 10
23.35722988370601
 20
-43.70423355957364
 30
0.0
 11
23.04820167648754
 21
-43.52873178043715
 31
0.0
  0
LINE
  5
AA
  8
BLATTANSICHT_1_GEOMETRIEAN
  6
VOLLINIE
 62
    18
 10
22.70717417957179
 20
-43.35664523761011
 30
0.0
 11
22.63470258686833
 21
-43.32283369893412
 31
0.0
  0
LINE
  5
AB
  8
BLATTANSICHT_1_GEOMETRIEAN
  6
VOLLINIE
 62
    18
 10
22.63470258686833
 20
-43.32283369893412
 30
0.0
 11
22.37012575534948
 21
-43.20722674758056
 31
0.0
  0
LINE
  5
AC
  8
BLATTANSICHT_1_GEOMETRIEAN
  6
VOLLINIE
 62
    18
 10
22.37012575534948
 20
-43.20722674758056
 30
0.0
 11
22.20931249662111
 21
-43.14278151704787
 31
0.0
  0
LINE
  5
AD
  8
BLATTANSICHT_1_GEOMETRIEAN
  6
VOLLINIE
 62
    18
 10
22.20931249662111
 20
-43.14278151704787
 30
0.0
 11
22.02670429635973
 21
-43.07475362453727
 31
0.0
  0
LINE
  5
AE
  8
BLATTANSICHT_1_GEOMETRIEAN
  6
VOLLINIE
 62
    18
 10
22.02670429635973
 20
-43.07475362453727
 30
0.0
 11
21.77364505606528
 21
-42.98925823437687
 31
0.0
  0
LINE
  5
AF
  8
BLATTANSICHT_1_GEOMETRIEAN
  6
VOLLINIE
 62
    18
 10
21.77364505606528
 20
-42.98925823437687
 30
0.0
 11
21.67755430773608
 21
-42.95939790441683
 31
0.0
  0
LINE
  5
B0
  8
BLATTANSICHT_1_GEOMETRIEAN
  6
VOLLINIE
 62
    18
 10
21.67755430773608
 20
-42.95939790441683
 30
0.0
 11
21.32935290103029
 21
-42.86284621731797
 31
0.0
  0
LINE
  5
B1
  8
BLATTANSICHT_1_GEOMETRIEAN
  6
VOLLINIE
 62
    18
 10
21.32935290103029
 20
-42.86284621731797
 30
0.0
 11
21.32332013309518
 21
-42.86133157483324
 31
0.0
  0
LINE
  5
B2
  8
BLATTANSICHT_1_GEOMETRIEAN
  6
VOLLINIE
 62
    18
 10
22.20931249662111
 20
-43.14278151704787
 30
0.0
 11
22.06515107609082
 21
-43.08862858202504
 31
0.0
  0
LINE
  5
B3
  8
BLATTANSICHT_1_GEOMETRIEAN
  6
VOLLINIE
 62
    18
 10
22.06515107609082
 20
-43.08862858202504
 30
0.0
 11
22.05100188388703
 21
-43.08380531920491
 31
0.0
  0
LINE
  5
B4
  8
BLATTANSICHT_1_GEOMETRIEAN
  6
VOLLINIE
 62
    18
 10
20.87812138384174
 20
-42.76402498995129
 30
0.0
 11
20.60217795844448
 21
-42.71775169392077
 31
0.0
  0
LINE
  5
B5
  8
BLATTANSICHT_1_GEOMETRIEAN
  6
VOLLINIE
 62
    18
 10
20.96464641614805
 20
-42.78072598947747
 30
0.0
 11
20.87812138384174
 21
-42.76402498995129
 31
0.0
  0
LINE
  5
B6
  8
BLATTANSICHT_1_GEOMETRIEAN
  6
VOLLINIE
 62
    18
 10
21.56724276272176
 20
-42.92880995855418
 30
0.0
 11
21.44114283903665
 21
-42.89187954055998
 31
0.0
  0
LINE
  5
B7
  8
BLATTANSICHT_1_GEOMETRIEAN
  6
VOLLINIE
 62
    18
 10
21.44114283903665
 20
-42.89187954055998
 30
0.0
 11
21.32935290103029
 21
-42.86284621731797
 31
0.0
  0
LINE
  5
B8
  8
BLATTANSICHT_1_GEOMETRIEAN
  6
VOLLINIE
 62
    18
 10
20.42166218020282
 20
-42.69316941504103
 30
0.0
 11
20.2365594761955
 21
-42.67257885969978
 31
0.0
  0
LINE
  5
B9
  8
BLATTANSICHT_1_GEOMETRIEAN
  6
VOLLINIE
 62
    18
 10
20.60217795844448
 20
-42.71775169392077
 30
0.0
 11
20.42166218020282
 21
-42.69316941504103
 31
0.0
  0
LINE
  5
BA
  8
BLATTANSICHT_1_GEOMETRIEAN
  6
VOLLINIE
 62
    18
 10
20.15366807055385
 20
-42.66486300186875
 30
0.0
 11
19.96170679622204
 21
-42.65054827205272
 31
0.0
  0
LINE
  5
BB
  8
BLATTANSICHT_1_GEOMETRIEAN
  6
VOLLINIE
 62
    18
 10
20.19574911348132
 20
-42.6693077390661
 30
0.0
 11
20.15366807055385
 21
-42.66486300186875
 31
0.0
  0
LINE
  5
BC
  8
BLATTANSICHT_1_GEOMETRIEAN
  6
VOLLINIE
 62
    18
 10
20.87812138384174
 20
-42.76402498995129
 30
0.0
 11
20.80236133286599
 21
-42.75026509001483
 31
0.0
  0
LINE
  5
BD
  8
BLATTANSICHT_1_GEOMETRIEAN
  6
VOLLINIE
 62
    18
 10
20.80236133286599
 20
-42.75026509001483
 30
0.0
 11
20.74277461230296
 21
-42.74132852158219
 31
0.0
  0
LINE
  5
BE
  8
BLATTANSICHT_1_GEOMETRIEAN
  6
VOLLINIE
 62
    18
 10
19.96170679622204
 20
-42.65054827205272
 30
0.0
 11
19.86852543441187
 21
-42.64538277563908
 31
0.0
  0
LINE
  5
BF
  8
BLATTANSICHT_1_GEOMETRIEAN
  6
VOLLINIE
 62
    18
 10
20.2365594761955
 20
-42.67257885969978
 30
0.0
 11
19.96170679622204
 21
-42.65054827205272
 31
0.0
  0
LINE
  5
C0
  8
BLATTANSICHT_1_GEOMETRIEAN
  6
VOLLINIE
 62
    18
 10
23.66677675531949
 20
-56.37234532758055
 30
0.0
 11
23.83330373577934
 21
-56.25780008025222
 31
0.0
  0
LINE
  5
C1
  8
BLATTANSICHT_1_GEOMETRIEAN
  6
VOLLINIE
 62
    18
 10
23.83330373577934
 20
-56.25780008025222
 30
0.0
 11
24.1761735197098
 21
-56.00005935166334
 31
0.0
  0
LINE
  5
C2
  8
BLATTANSICHT_1_GEOMETRIEAN
  6
VOLLINIE
 62
    18
 10
24.652476950379
 20
-55.58627564820344
 30
0.0
 11
24.88433942320078
 21
-55.35732783230253
 31
0.0
  0
LINE
  5
C3
  8
BLATTANSICHT_1_GEOMETRIEAN
  6
VOLLINIE
 62
    18
 10
24.88433942320078
 20
-55.35732783230253
 30
0.0
 11
25.09231624109562
 21
-55.13392256745991
 31
0.0
  0
LINE
  5
C4
  8
BLATTANSICHT_1_GEOMETRIEAN
  6
VOLLINIE
 62
    18
 10
26.90766255499087
 20
-51.30958172342591
 30
0.0
 11
26.91124104082692
 21
-51.28676064917074
 31
0.0
  0
LINE
  5
C5
  8
BLATTANSICHT_1_GEOMETRIEAN
  6
VOLLINIE
 62
    18
 10
26.91124104082692
 20
-51.28676064917074
 30
0.0
 11
26.96800632243023
 21
-50.82833593355537
 31
0.0
  0
LINE
  5
C6
  8
BLATTANSICHT_1_GEOMETRIEAN
  6
VOLLINIE
 62
    18
 10
21.32322122074995
 20
-57.41133968986435
 30
0.0
 11
21.32935290103029
 21
-57.40980025784312
 31
0.0
  0
LINE
  5
C7
  8
BLATTANSICHT_1_GEOMETRIEAN
  6
VOLLINIE
 62
    18
 10
21.4676063302403
 20
-57.3714653404495
 30
0.0
 11
21.67746302701022
 21
-57.31327626563852
 31
0.0
  0
LINE
  5
C8
  8
BLATTANSICHT_1_GEOMETRIEAN
  6
VOLLINIE
 62
    18
 10
21.67746302701022
 20
-57.31327626563852
 30
0.0
 11
21.77364505606528
 21
-57.28338824078423
 31
0.0
  0
LINE
  5
C9
  8
BLATTANSICHT_1_GEOMETRIEAN
  6
VOLLINIE
 62
    18
 10
22.00293407369679
 20
-57.20592461358723
 30
0.0
 11
22.02664588403978
 21
-57.1979137508972
 31
0.0
  0
LINE
  5
CA
  8
BLATTANSICHT_1_GEOMETRIEAN
  6
VOLLINIE
 62
    18
 10
22.02664588403978
 20
-57.1979137508972
 30
0.0
 11
22.20931249662111
 21
-57.12986495811322
 31
0.0
  0
LINE
  5
CB
  8
BLATTANSICHT_1_GEOMETRIEAN
  6
VOLLINIE
 62
    18
 10
22.20931249662111
 20
-57.12986495811322
 30
0.0
 11
22.37012445627819
 21
-57.06542026437431
 31
0.0
  0
LINE
  5
CC
  8
BLATTANSICHT_1_GEOMETRIEAN
  6
VOLLINIE
 62
    18
 10
22.37012445627819
 20
-57.06542026437431
 30
0.0
 11
22.50285428851509
 21
-57.00742392706217
 31
0.0
  0
LINE
  5
CD
  8
BLATTANSICHT_1_GEOMETRIEAN
  6
VOLLINIE
 62
    18
 10
23.83330373577934
 20
-56.25780008025222
 30
0.0
 11
23.96841800122693
 21
-56.15988037338118
 31
0.0
  0
LINE
  5
CE
  8
BLATTANSICHT_1_GEOMETRIEAN
  6
VOLLINIE
 62
    18
 10
23.96841800122693
 20
-56.15988037338118
 30
0.0
 11
24.14157905452423
 21
-56.02606456728736
 31
0.0
  0
LINE
  5
CF
  8
BLATTANSICHT_1_GEOMETRIEAN
  6
VOLLINIE
 62
    18
 10
23.66741202411784
 20
-56.37190835922008
 30
0.0
 11
23.6679128161411
 21
-56.37158608359271
 31
0.0
  0
LINE
  5
D0
  8
BLATTANSICHT_1_GEOMETRIEAN
  6
VOLLINIE
 62
    18
 10
23.6679128161411
 20
-56.37158608359271
 30
0.0
 11
23.83330373577934
 21
-56.25780008025222
 31
0.0
  0
LINE
  5
D1
  8
BLATTANSICHT_1_GEOMETRIEAN
  6
VOLLINIE
 62
    18
 10
26.82636238341448
 20
-51.74082136162932
 30
0.0
 11
26.85613463186368
 21
-51.59826827112165
 31
0.0
  0
LINE
  5
D2
  8
BLATTANSICHT_1_GEOMETRIEAN
  6
VOLLINIE
 62
    18
 10
26.85613463186368
 20
-51.59826827112165
 30
0.0
 11
26.90022465489145
 21
-51.34903449807168
 31
0.0
  0
LINE
  5
D3
  8
BLATTANSICHT_1_GEOMETRIEAN
  6
VOLLINIE
 62
    18
 10
26.71369232401361
 20
-52.18879566312121
 30
0.0
 11
26.77562121115401
 21
-51.95712965095088
 31
0.0
  0
LINE
  5
D4
  8
BLATTANSICHT_1_GEOMETRIEAN
  6
VOLLINIE
 62
    18
 10
26.77562121115401
 20
-51.95712965095088
 30
0.0
 11
26.78573926349864
 21
-51.9139966586207
 31
0.0
  0
LINE
  5
D5
  8
BLATTANSICHT_1_GEOMETRIEAN
  6
VOLLINIE
 62
    18
 10
26.99644289806773
 20
-50.36728617675188
 30
0.0
 11
26.99999999238748
 21
-50.13632323758055
 31
0.0
  0
LINE
  5
D6
  8
BLATTANSICHT_1_GEOMETRIEAN
  6
VOLLINIE
 62
    18
 10
26.97688000329364
 20
-50.72476645455207
 30
0.0
 11
26.99644289806773
 21
-50.36728617675188
 31
0.0
  0
LINE
  5
D7
  8
BLATTANSICHT_1_GEOMETRIEAN
  6
VOLLINIE
 62
    18
 10
26.96800632243023
 20
-50.82833593355537
 30
0.0
 11
26.97688000329364
 21
-50.72476645455207
 31
0.0
  0
LINE
  5
D8
  8
BLATTANSICHT_1_GEOMETRIEAN
  6
VOLLINIE
 62
    18
 10
25.09231624109562
 20
-55.13392256745991
 30
0.0
 11
25.19553687512775
 21
-55.01596048911238
 31
0.0
  0
LINE
  5
D9
  8
BLATTANSICHT_1_GEOMETRIEAN
  6
VOLLINIE
 62
    18
 10
26.91124104082692
 20
-51.28676064917074
 30
0.0
 11
26.91892828487428
 21
-51.23609735398786
 31
0.0
  0
LINE
  5
DA
  8
BLATTANSICHT_1_GEOMETRIEAN
  6
VOLLINIE
 62
    18
 10
26.62937556780414
 20
-52.45384026009488
 30
0.0
 11
26.62936702817819
 21
-52.45386710388986
 31
0.0
  0
LINE
  5
DB
  8
BLATTANSICHT_1_GEOMETRIEAN
  6
VOLLINIE
 62
    18
 10
26.67748800710307
 20
-52.31202218527841
 30
0.0
 11
26.71369232401361
 21
-52.18879566312121
 31
0.0
  0
LINE
  5
DC
  8
BLATTANSICHT_1_GEOMETRIEAN
  6
VOLLINIE
 62
    18
 10
26.65849862686239
 20
-52.36999124476773
 30
0.0
 11
26.67748800710307
 21
-52.31202218527841
 31
0.0
  0
LINE
  5
DD
  8
BLATTANSICHT_1_GEOMETRIEAN
  6
VOLLINIE
 62
    18
 10
26.56183466808263
 20
-52.66228664264758
 30
0.0
 11
26.57365825875205
 21
-52.62898423367805
 31
0.0
  0
LINE
  5
DE
  8
BLATTANSICHT_1_GEOMETRIEAN
  6
VOLLINIE
 62
    18
 10
24.20192854442325
 20
-55.97942754652311
 30
0.0
 11
24.25817342303534
 21
-55.93371796956058
 31
0.0
  0
LINE
  5
DF
  8
BLATTANSICHT_1_GEOMETRIEAN
  6
VOLLINIE
 62
    18
 10
23.35719200709403
 20
-56.56843562948477
 30
0.0
 11
23.44824122179762
 21
-56.51295175555266
 31
0.0
  0
LINE
  5
E0
  8
BLATTANSICHT_1_GEOMETRIEAN
  6
VOLLINIE
 62
    18
 10
23.23288912514321
 20
-56.63902862664573
 30
0.0
 11
23.35719200709403
 21
-56.56843562948477
 31
0.0
  0
LINE
  5
E1
  8
BLATTANSICHT_1_GEOMETRIEAN
  6
VOLLINIE
 62
    18
 10
23.03678986451297
 20
-56.7500300239309
 30
0.0
 11
23.04820167648753
 21
-56.74391469472395
 31
0.0
  0
LINE
  5
E2
  8
BLATTANSICHT_1_GEOMETRIEAN
  6
VOLLINIE
 62
    18
 10
22.63470258686833
 20
-56.94981277622698
 30
0.0
 11
22.70725350482653
 21
-56.91596371161552
 31
0.0
  0
LINE
  5
E3
  8
BLATTANSICHT_1_GEOMETRIEAN
  6
VOLLINIE
 62
    18
 10
20.87812138384173
 20
-57.50862148520981
 30
0.0
 11
20.96456609772275
 21
-57.49193647823141
 31
0.0
  0
LINE
  5
E4
  8
BLATTANSICHT_1_GEOMETRIEAN
  6
VOLLINIE
 62
    18
 10
19.96170679622204
 20
-57.62209820310839
 30
0.0
 11
20.13037893824869
 21
-57.60978444337313
 31
0.0
  0
LINE
  5
E5
  8
BLATTANSICHT_1_GEOMETRIEAN
  6
VOLLINIE
 62
    18
 10
19.50000000021749
 20
-57.63632323758056
 30
0.0
 11
19.96170679622204
 21
-57.62209820310839
 31
0.0
  0
LINE
  5
E6
  8
BLATTANSICHT_1_GEOMETRIEAN
  6
VOLLINIE
 62
    18
 10
20.42166218020282
 20
-57.57947706012008
 30
0.0
 11
20.7562966771041
 21
-57.53035587611033
 31
0.0
  0
LINE
  5
E7
  8
BLATTANSICHT_1_GEOMETRIEAN
  6
VOLLINIE
 62
    18
 10
20.13037893824869
 20
-57.60978444337313
 30
0.0
 11
20.42166218020282
 21
-57.57947706012008
 31
0.0
  0
LINE
  5
E8
  8
BLATTANSICHT_1_GEOMETRIEAN
  6
VOLLINIE
 62
    18
 10
19.86861224100273
 20
-57.62725942846773
 30
0.0
 11
19.96170679622204
 21
-57.62209820310839
 31
0.0
  0
LINE
  5
E9
  8
BLATTANSICHT_1_GEOMETRIEAN
  6
VOLLINIE
 62
    18
 10
20.7562966771041
 20
-57.53035587611033
 30
0.0
 11
20.87812138384174
 21
-57.50862148520981
 31
0.0
  0
LINE
  5
EA
  8
BLATTANSICHT_1_GEOMETRIEAN
  6
VOLLINIE
 62
    18
 10
24.20192854442325
 20
-55.97942754652311
 30
0.0
 11
24.55271732756664
 21
-55.67889011673552
 31
0.0
  0
LINE
  5
EB
  8
BLATTANSICHT_1_GEOMETRIEAN
  6
VOLLINIE
 62
    18
 10
24.1761735197098
 20
-56.00005935166334
 30
0.0
 11
24.20192854442325
 21
-55.97942754652311
 31
0.0
  0
LINE
  5
EC
  8
BLATTANSICHT_1_GEOMETRIEAN
  6
VOLLINIE
 62
    18
 10
24.55271732756664
 20
-55.67889011673552
 30
0.0
 11
24.652476950379
 21
-55.58627564820344
 31
0.0
  0
LINE
  5
ED
  8
BLATTANSICHT_1_GEOMETRIEAN
  6
VOLLINIE
 62
    18
 10
24.53664543339566
 20
-55.69349902933354
 30
0.0
 11
24.55271732756664
 21
-55.67889011673552
 31
0.0
  0
LINE
  5
EE
  8
BLATTANSICHT_1_GEOMETRIEAN
  6
VOLLINIE
 62
    18
 10
23.44824122179762
 20
-56.51295175555266
 30
0.0
 11
23.66677675531949
 21
-56.37234532758055
 31
0.0
  0
LINE
  5
EF
  8
BLATTANSICHT_1_GEOMETRIEAN
  6
VOLLINIE
 62
    18
 10
23.12789165910263
 20
-56.70049889880348
 30
0.0
 11
23.44824122179762
 21
-56.51295175555266
 31
0.0
  0
LINE
  5
F0
  8
BLATTANSICHT_1_GEOMETRIEAN
  6
VOLLINIE
 62
    18
 10
23.04820167648754
 20
-56.74391469472395
 30
0.0
 11
23.12789165910263
 21
-56.70049889880348
 31
0.0
  0
LINE
  5
F1
  8
BLATTANSICHT_1_GEOMETRIEAN
  6
VOLLINIE
 62
    18
 10
20.60214347029263
 20
-57.55489990506675
 30
0.0
 11
20.69381572301715
 21
-57.53952749012871
 31
0.0
  0
LINE
  5
F2
  8
BLATTANSICHT_1_GEOMETRIEAN
  6
VOLLINIE
 62
    18
 10
20.42166218020282
 20
-57.57947706012008
 30
0.0
 11
20.60214347029263
 21
-57.55489990506675
 31
0.0
  0
LINE
  5
F3
  8
BLATTANSICHT_1_GEOMETRIEAN
  6
VOLLINIE
 62
    18
 10
20.18087775680588
 20
-57.60453015192274
 30
0.0
 11
20.23659909128557
 21
-57.60006370594073
 31
0.0
  0
LINE
  5
F4
  8
BLATTANSICHT_1_GEOMETRIEAN
  6
VOLLINIE
 62
    18
 10
20.23659909128557
 20
-57.60006370594073
 30
0.0
 11
20.42166218020282
 21
-57.57947706012008
 31
0.0
  0
LINE
  5
F5
  8
BLATTANSICHT_1_GEOMETRIEAN
  6
VOLLINIE
 62
    18
 10
20.87812138384174
 20
-57.50862148520981
 30
0.0
 11
21.32935290103029
 21
-57.40980025784312
 31
0.0
  0
LINE
  5
F6
  8
BLATTANSICHT_1_GEOMETRIEAN
  6
VOLLINIE
 62
    18
 10
21.32935290103029
 20
-57.40980025784312
 30
0.0
 11
21.37332358956717
 21
-57.39859965269901
 31
0.0
  0
LINE
  5
F7
  8
BLATTANSICHT_1_GEOMETRIEAN
  6
VOLLINIE
 62
    18
 10
21.37332358956717
 20
-57.39859965269901
 30
0.0
 11
21.77364505606528
 21
-57.28338824078423
 31
0.0
  0
LINE
  5
F8
  8
BLATTANSICHT_1_GEOMETRIEAN
  6
VOLLINIE
 62
    18
 10
21.77364505606528
 20
-57.28338824078423
 30
0.0
 11
21.97709296890446
 21
-57.21544821348551
 31
0.0
  0
LINE
  5
F9
  8
BLATTANSICHT_1_GEOMETRIEAN
  6
VOLLINIE
 62
    18
 10
21.97709296890446
 20
-57.21544821348551
 30
0.0
 11
22.20931249662111
 21
-57.12986495811322
 31
0.0
  0
LINE
  5
FA
  8
BLATTANSICHT_1_GEOMETRIEAN
  6
VOLLINIE
 62
    18
 10
22.20931249662111
 20
-57.12986495811322
 30
0.0
 11
22.56333193210078
 21
-56.98219772336424
 31
0.0
  0
LINE
  5
FB
  8
BLATTANSICHT_1_GEOMETRIEAN
  6
VOLLINIE
 62
    18
 10
22.56333193210078
 20
-56.98219772336424
 30
0.0
 11
22.63470258686833
 21
-56.94981277622698
 31
0.0
  0
LINE
  5
FC
  8
BLATTANSICHT_1_GEOMETRIEAN
  6
VOLLINIE
 62
    18
 10
22.63470258686833
 20
-56.94981277622698
 30
0.0
 11
23.04820167648754
 21
-56.74391469472395
 31
0.0
  0
LINE
  5
FD
  8
BLATTANSICHT_1_GEOMETRIEAN
  6
VOLLINIE
 62
    18
 10
24.73345924522494
 20
-55.50631135167033
 30
0.0
 11
24.80330086959448
 21
-55.43962410258055
 31
0.0
  0
LINE
  5
FE
  8
BLATTANSICHT_1_GEOMETRIEAN
  6
VOLLINIE
 62
    18
 10
24.80330086959448
 20
-55.43962410258055
 30
0.0
 11
24.88433942320078
 21
-55.35732783230253
 31
0.0
  0
LINE
  5
FF
  8
BLATTANSICHT_1_GEOMETRIEAN
  6
VOLLINIE
 62
    18
 10
25.19553687512775
 20
-55.01596048911238
 30
0.0
 11
25.48512920481926
 21
-54.656083010425
 31
0.0
  0
LINE
  5
100
  8
BLATTANSICHT_1_GEOMETRIEAN
  6
VOLLINIE
 62
    18
 10
25.48512920481926
 20
-54.656083010425
 30
0.0
 11
25.49257864402816
 21
-54.64620141750338
 31
0.0
  0
LINE
  5
101
  8
BLATTANSICHT_1_GEOMETRIEAN
  6
VOLLINIE
 62
    18
 10
24.88433942320078
 20
-55.35732783230253
 30
0.0
 11
25.05760613352056
 21
-55.17249381323345
 31
0.0
  0
LINE
  5
102
  8
BLATTANSICHT_1_GEOMETRIEAN
  6
VOLLINIE
 62
    18
 10
25.05760613352056
 20
-55.17249381323345
 30
0.0
 11
25.07880099581331
 21
-55.14844042085466
 31
0.0
  0
LINE
  5
103
  8
BLATTANSICHT_1_GEOMETRIEAN
  6
VOLLINIE
 62
    18
 10
25.75201788937586
 20
-54.27906053478438
 30
0.0
 11
25.85043149744531
 21
-54.12656380664612
 31
0.0
  0
LINE
  5
104
  8
BLATTANSICHT_1_GEOMETRIEAN
  6
VOLLINIE
 62
    18
 10
25.49257864402816
 20
-54.64620141750338
 30
0.0
 11
25.75201788937586
 21
-54.27906053478438
 31
0.0
  0
LINE
  5
105
  8
BLATTANSICHT_1_GEOMETRIEAN
  6
VOLLINIE
 62
    18
 10
25.19553687512775
 20
-55.01596048911238
 30
0.0
 11
25.29852924079804
 21
-54.89311403034536
 31
0.0
  0
LINE
  5
106
  8
BLATTANSICHT_1_GEOMETRIEAN
  6
VOLLINIE
 62
    18
 10
25.29852924079804
 20
-54.89311403034536
 30
0.0
 11
25.48512920481926
 21
-54.656083010425
 31
0.0
  0
LINE
  5
107
  8
BLATTANSICHT_1_GEOMETRIEAN
  6
VOLLINIE
 62
    18
 10
25.99519052860076
 20
-53.88632323758058
 30
0.0
 11
26.16334227249625
 21
-53.57868721636937
 31
0.0
  0
LINE
  5
108
  8
BLATTANSICHT_1_GEOMETRIEAN
  6
VOLLINIE
 62
    18
 10
25.85043149744531
 20
-54.12656380664612
 30
0.0
 11
25.99519052860076
 21
-53.88632323758058
 31
0.0
  0
LINE
  5
109
  8
BLATTANSICHT_1_GEOMETRIEAN
  6
VOLLINIE
 62
    18
 10
26.9820778405284
 20
-50.62978438159703
 30
0.0
 11
26.99095931691802
 21
-50.50446521499859
 31
0.0
  0
LINE
  5
10A
  8
BLATTANSICHT_1_GEOMETRIEAN
  6
VOLLINIE
 62
    18
 10
26.99095931691802
 20
-50.50446521499859
 30
0.0
 11
26.99644289806773
 21
-50.36728617675189
 31
0.0
  0
LINE
  5
10B
  8
BLATTANSICHT_1_GEOMETRIEAN
  6
VOLLINIE
 62
    18
 10
26.96390271798181
 20
-50.87127644680564
 30
0.0
 11
26.96800632243023
 21
-50.82833593355537
 31
0.0
  0
LINE
  5
10C
  8
BLATTANSICHT_1_GEOMETRIEAN
  6
VOLLINIE
 62
    18
 10
26.82636238341448
 20
-51.74082136162932
 30
0.0
 11
26.90766255499087
 21
-51.30958172342591
 31
0.0
  0
LINE
  5
10D
  8
BLATTANSICHT_1_GEOMETRIEAN
  6
VOLLINIE
 62
    18
 10
26.79277440389365
 20
-51.8871634636108
 30
0.0
 11
26.82636238341448
 21
-51.74082136162932
 31
0.0
  0
LINE
  5
10E
  8
BLATTANSICHT_1_GEOMETRIEAN
  6
VOLLINIE
 62
    18
 10
26.71369232401361
 20
-52.18879566312121
 30
0.0
 11
26.79277440389365
 21
-51.8871634636108
 31
0.0
  0
LINE
  5
10F
  8
BLATTANSICHT_1_GEOMETRIEAN
  6
VOLLINIE
 62
    18
 10
26.63292387365531
 20
-52.45395069162505
 30
0.0
 11
26.71369232401361
 21
-52.18879566312121
 31
0.0
  0
LINE
  5
110
  8
BLATTANSICHT_1_GEOMETRIEAN
  6
VOLLINIE
 62
    18
 10
25.49352836507656
 20
-54.64485743647393
 30
0.0
 11
25.52502603968412
 21
-54.60276043334954
 31
0.0
  0
LINE
  5
111
  8
BLATTANSICHT_1_GEOMETRIEAN
  6
VOLLINIE
 62
    18
 10
26.16334227249625
 20
-53.57868721636937
 30
0.0
 11
26.21372468538042
 21
-53.47936090590463
 31
0.0
  0
LINE
  5
112
  8
BLATTANSICHT_1_GEOMETRIEAN
  6
VOLLINIE
 62
    18
 10
26.40679138480462
 20
-53.05971728727569
 30
0.0
 11
26.42909650038149
 21
-53.00644897758055
 31
0.0
  0
LINE
  5
113
  8
BLATTANSICHT_1_GEOMETRIEAN
  6
VOLLINIE
 62
    18
 10
26.21372468538042
 20
-53.47936090590463
 30
0.0
 11
26.40679138480462
 21
-53.05971728727569
 31
0.0
  0
LINE
  5
114
  8
BLATTANSICHT_1_GEOMETRIEAN
  6
VOLLINIE
 62
    18
 10
26.57365825875205
 20
-52.62898423367805
 30
0.0
 11
26.63292387365531
 21
-52.45395069162505
 31
0.0
  0
LINE
  5
115
  8
BLATTANSICHT_1_GEOMETRIEAN
  6
VOLLINIE
 62
    18
 10
26.42909650038149
 20
-53.00644897758055
 30
0.0
 11
26.57365825875205
 21
-52.62898423367805
 31
0.0
  0
LINE
  5
116
  8
BLATTANSICHT_1_GEOMETRIEAN
  6
VOLLINIE
 62
    18
 10
25.73675187736988
 20
-54.30200757785839
 30
0.0
 11
25.75201788937586
 21
-54.27906053478438
 31
0.0
  0
LINE
  5
117
  8
BLATTANSICHT_1_GEOMETRIEAN
  6
VOLLINIE
 62
    18
 10
25.89937992545266
 20
-54.04532950916923
 30
0.0
 11
25.93336394352794
 21
-53.99142743499375
 31
0.0
  0
LINE
  5
118
  8
BLATTANSICHT_1_GEOMETRIEAN
  6
VOLLINIE
 62
    18
 10
25.93336394352794
 20
-53.99142743499375
 30
0.0
 11
25.99519052860075
 21
-53.88632323758058
 31
0.0
  0
LINE
  5
119
  8
BLATTANSICHT_1_GEOMETRIEAN
  6
VOLLINIE
 62
    18
 10
25.99519052860075
 20
-53.88632323758058
 30
0.0
 11
26.11451979121059
 21
-53.67159238356654
 31
0.0
  0
LINE
  5
11A
  8
BLATTANSICHT_1_GEOMETRIEAN
  6
VOLLINIE
 62
    18
 10
26.11451979121059
 20
-53.67159238356654
 30
0.0
 11
26.14763895790273
 21
-53.60741665508623
 31
0.0
  0
LINE
  5
11B
  8
BLATTANSICHT_1_GEOMETRIEAN
  6
VOLLINIE
 62
    18
 10
26.21372468538042
 20
-53.47936090590463
 30
0.0
 11
26.27987769731845
 21
-53.34307524114315
 31
0.0
  0
LINE
  5
11C
  8
BLATTANSICHT_1_GEOMETRIEAN
  6
VOLLINIE
 62
    18
 10
26.27987769731845
 20
-53.34307524114315
 30
0.0
 11
26.40679138480462
 21
-53.05971728727569
 31
0.0
  0
LINE
  5
11D
  8
BLATTANSICHT_1_GEOMETRIEAN
  6
VOLLINIE
 62
    18
 10
26.91892828487428
 20
-51.23609735398786
 30
0.0
 11
26.96390271798181
 21
-50.87127644680564
 31
0.0
  0
LINE
  5
11E
  8
BLATTANSICHT_1_GEOMETRIEAN
  6
VOLLINIE
 62
    18
 10
26.42909650534348
 20
-53.00644897758055
 30
0.0
 11
26.56183466808263
 21
-52.66228664264758
 31
0.0
  0
LINE
  5
11F
  8
BLATTANSICHT_1_GEOMETRIEAN
  6
VOLLINIE
 62
    18
 10
24.25817342303534
 20
-55.93371796956058
 30
0.0
 11
24.53664543339566
 21
-55.69349902933354
 31
0.0
  0
LINE
  5
120
  8
BLATTANSICHT_1_GEOMETRIEAN
  6
VOLLINIE
 62
    18
 10
22.70725350482653
 20
-56.91596371161552
 30
0.0
 11
23.03678986451297
 21
-56.7500300239309
 31
0.0
  0
LINE
  5
121
  8
BLATTANSICHT_1_GEOMETRIEAN
  6
VOLLINIE
 62
    18
 10
20.96456609772275
 20
-57.49193647823141
 30
0.0
 11
21.32322122074995
 21
-57.41133968986435
 31
0.0
  0
LINE
  5
122
  8
BLATTANSICHT_1_GEOMETRIEAN
  6
VOLLINIE
 62
    18
 10
19.50000000021749
 20
-57.63632323758056
 30
0.0
 11
19.86861224100273
 21
-57.62725942846773
 31
0.0
  0
LINE
  5
123
  8
BLATTANSICHT_1_GEOMETRIEAN
  6
VOLLINIE
 62
    18
 10
25.52502603968412
 20
-54.60276043334954
 30
0.0
 11
25.73675187736988
 21
-54.30200757785839
 31
0.0
  0
LINE
  5
124
  8
BLATTANSICHT_1_GEOMETRIEAN
  6
VOLLINIE
 62
    18
 10
10.91759350646664
 20
-51.75277882065894
 30
0.0
 11
10.77131574720142
 21
-51.87017913480555
 31
0.0
  0
LINE
  5
125
  8
BLATTANSICHT_1_GEOMETRIEAN
  6
VOLLINIE
 62
    18
 10
11.28765967169864
 20
-51.33079923164455
 30
0.0
 11
11.17675164368266
 21
-51.48205869726235
 31
0.0
  0
LINE
  5
126
  8
BLATTANSICHT_1_GEOMETRIEAN
  6
VOLLINIE
 62
    18
 10
11.05308252304058
 20
-51.62307630331559
 30
0.0
 11
10.91759350646664
 21
-51.75277882065894
 31
0.0
  0
LINE
  5
127
  8
BLATTANSICHT_1_GEOMETRIEAN
  6
VOLLINIE
 62
    18
 10
11.17675164368266
 20
-51.48205869726235
 30
0.0
 11
11.05308252304058
 21
-51.62307630331559
 31
0.0
  0
LINE
  5
128
  8
BLATTANSICHT_1_GEOMETRIEAN
  6
VOLLINIE
 62
    18
 10
10.77131574720142
 20
-51.87017913480555
 30
0.0
 11
10.61536250733291
 21
-51.97438375846444
 31
0.0
  0
LINE
  5
129
  8
BLATTANSICHT_1_GEOMETRIEAN
  6
VOLLINIE
 62
    18
 10
10.61536250733291
 20
-51.97438375846444
 30
0.0
 11
10.45092068519971
 21
-52.06459963151838
 31
0.0
  0
LINE
  5
12A
  8
BLATTANSICHT_1_GEOMETRIEAN
  6
VOLLINIE
 62
    18
 10
10.27924178237782
 20
-52.14014015669032
 30
0.0
 11
10.10163237899796
 21
-52.20043042496328
 31
0.0
  0
LINE
  5
12B
  8
BLATTANSICHT_1_GEOMETRIEAN
  6
VOLLINIE
 62
    18
 10
10.45092068519971
 20
-52.06459963151838
 30
0.0
 11
10.27924178237782
 21
-52.14014015669032
 31
0.0
  0
LINE
  5
12C
  8
BLATTANSICHT_1_GEOMETRIEAN
  6
VOLLINIE
 62
    18
 10
10.10163237899796
 20
-52.20043042496328
 30
0.0
 11
9.919444189881615
 21
-52.24501159098527
 31
0.0
  0
LINE
  5
12D
  8
BLATTANSICHT_1_GEOMETRIEAN
  6
VOLLINIE
 62
    18
 10
11.37586641936361
 20
-51.18685890049748
 30
0.0
 11
11.28765967169864
 21
-51.33079923164455
 31
0.0
  0
LINE
  5
12E
  8
BLATTANSICHT_1_GEOMETRIEAN
  6
VOLLINIE
 62
    18
 10
11.60868835406999
 20
-50.55576742717805
 30
0.0
 11
11.56927876008488
 21
-50.71992020103913
 31
0.0
  0
LINE
  5
12F
  8
BLATTANSICHT_1_GEOMETRIEAN
  6
VOLLINIE
 62
    18
 10
11.56927876008488
 20
-50.71992020103913
 30
0.0
 11
11.51711137460994
 21
-50.88047490560135
 31
0.0
  0
LINE
  5
130
  8
BLATTANSICHT_1_GEOMETRIEAN
  6
VOLLINIE
 62
    18
 10
11.45250782691978
 20
-51.03644166773419
 30
0.0
 11
11.37586641936361
 21
-51.18685890049748
 31
0.0
  0
LINE
  5
131
  8
BLATTANSICHT_1_GEOMETRIEAN
  6
VOLLINIE
 62
    18
 10
11.51711137460994
 20
-50.88047490560135
 30
0.0
 11
11.45250782691978
 21
-51.03644166773419
 31
0.0
  0
LINE
  5
132
  8
BLATTANSICHT_1_GEOMETRIEAN
  6
VOLLINIE
 62
    18
 10
11.63509718331533
 20
-50.38902864045178
 30
0.0
 11
11.60868835406999
 21
-50.55576742717805
 31
0.0
  0
LINE
  5
133
  8
BLATTANSICHT_1_GEOMETRIEAN
  6
VOLLINIE
 62
    18
 10
11.60868835410232
 20
-49.71687904797661
 30
0.0
 11
11.63509718333481
 21
-49.88361783470491
 31
0.0
  0
LINE
  5
134
  8
BLATTANSICHT_1_GEOMETRIEAN
  6
VOLLINIE
 62
    18
 10
11.63509718333481
 20
-49.88361783470491
 30
0.0
 11
11.64834242861808
 21
-50.05191463425394
 31
0.0
  0
LINE
  5
135
  8
BLATTANSICHT_1_GEOMETRIEAN
  6
VOLLINIE
 62
    18
 10
11.64834242861157
 20
-50.22073184090378
 30
0.0
 11
11.63509718331533
 21
-50.38902864045178
 31
0.0
  0
LINE
  5
136
  8
BLATTANSICHT_1_GEOMETRIEAN
  6
VOLLINIE
 62
    18
 10
11.64834242861157
 20
-50.22073184090378
 30
0.0
 11
11.64834242861808
 21
-50.05191463425394
 31
0.0
  0
LINE
  5
137
  8
BLATTANSICHT_1_GEOMETRIEAN
  6
VOLLINIE
 62
    18
 10
11.5692787601285
 20
-49.55272627410765
 30
0.0
 11
11.60868835410232
 21
-49.71687904797661
 31
0.0
  0
LINE
  5
138
  8
BLATTANSICHT_1_GEOMETRIEAN
  6
VOLLINIE
 62
    18
 10
11.51711137466381
 20
-49.39217156953679
 30
0.0
 11
11.5692787601285
 21
-49.55272627410765
 31
0.0
  0
LINE
  5
139
  8
BLATTANSICHT_1_GEOMETRIEAN
  6
VOLLINIE
 62
    18
 10
11.45250782698284
 20
-49.23620480739469
 30
0.0
 11
11.51711137466381
 21
-49.39217156953679
 31
0.0
  0
LINE
  5
13A
  8
BLATTANSICHT_1_GEOMETRIEAN
  6
VOLLINIE
 62
    18
 10
11.37586641943473
 20
-49.08578757462163
 30
0.0
 11
11.45250782698284
 21
-49.23620480739469
 31
0.0
  0
LINE
  5
13B
  8
BLATTANSICHT_1_GEOMETRIEAN
  6
VOLLINIE
 62
    18
 10
11.28765967177671
 20
-48.9418472434644
 30
0.0
 11
11.37586641943473
 21
-49.08578757462163
 31
0.0
  0
LINE
  5
13C
  8
BLATTANSICHT_1_GEOMETRIEAN
  6
VOLLINIE
 62
    18
 10
11.17675164376314
 20
-48.79058777783003
 30
0.0
 11
11.28765967177671
 21
-48.9418472434644
 31
0.0
  0
LINE
  5
13D
  8
BLATTANSICHT_1_GEOMETRIEAN
  6
VOLLINIE
 62
    18
 10
11.05308252312122
 20
-48.64957017176076
 30
0.0
 11
11.17675164376314
 21
-48.79058777783003
 31
0.0
  0
LINE
  5
13E
  8
BLATTANSICHT_1_GEOMETRIEAN
  6
VOLLINIE
 62
    18
 10
10.91759350654534
 20
-48.51986765440218
 30
0.0
 11
11.05308252312122
 21
-48.64957017176076
 31
0.0
  0
LINE
  5
13F
  8
BLATTANSICHT_1_GEOMETRIEAN
  6
VOLLINIE
 62
    18
 10
10.7713157472762
 20
-48.40246734024137
 30
0.0
 11
10.91759350654534
 21
-48.51986765440218
 31
0.0
  0
LINE
  5
140
  8
BLATTANSICHT_1_GEOMETRIEAN
  6
VOLLINIE
 62
    18
 10
10.45092068526142
 20
-48.20804684350414
 30
0.0
 11
10.61536250740197
 21
-48.29826271656955
 31
0.0
  0
LINE
  5
141
  8
BLATTANSICHT_1_GEOMETRIEAN
  6
VOLLINIE
 62
    18
 10
9.919444189913953
 20
-48.02763488401325
 30
0.0
 11
10.10163237904108
 21
-48.07221605004138
 31
0.0
  0
LINE
  5
142
  8
BLATTANSICHT_1_GEOMETRIEAN
  6
VOLLINIE
 62
    18
 10
10.61536250740197
 20
-48.29826271656955
 30
0.0
 11
10.7713157472762
 21
-48.40246734024137
 31
0.0
  0
LINE
  5
143
  8
BLATTANSICHT_1_GEOMETRIEAN
  6
VOLLINIE
 62
    18
 10
10.27924178243082
 20
-48.13250631832239
 30
0.0
 11
10.45092068526142
 21
-48.20804684350414
 31
0.0
  0
LINE
  5
144
  8
BLATTANSICHT_1_GEOMETRIEAN
  6
VOLLINIE
 62
    18
 10
10.10163237904108
 20
-48.07221605004138
 30
0.0
 11
10.27924178243082
 21
-48.13250631832239
 31
0.0
  0
LINE
  5
145
  8
BLATTANSICHT_1_GEOMETRIEAN
  6
VOLLINIE
 62
    18
 10
17.43072124174099
 20
-49.55272627210438
 30
0.0
 11
17.48288862760672
 21
-49.39217156707807
 31
0.0
  0
LINE
  5
146
  8
BLATTANSICHT_1_GEOMETRIEAN
  6
VOLLINIE
 62
    18
 10
17.48288862760672
 20
-49.39217156707807
 30
0.0
 11
17.54749217576364
 21
-49.23620480453015
 31
0.0
  0
LINE
  5
147
  8
BLATTANSICHT_1_GEOMETRIEAN
  6
VOLLINIE
 62
    18
 10
17.62413358385709
 20
-49.08578757140974
 30
0.0
 11
17.71234033212334
 21
-48.94184723997189
 31
0.0
  0
LINE
  5
148
  8
BLATTANSICHT_1_GEOMETRIEAN
  6
VOLLINIE
 62
    18
 10
17.54749217576364
 20
-49.23620480453015
 30
0.0
 11
17.62413358385709
 21
-49.08578757140974
 31
0.0
  0
LINE
  5
149
  8
BLATTANSICHT_1_GEOMETRIEAN
  6
VOLLINIE
 62
    18
 10
17.3913116474457
 20
-49.71687904646907
 30
0.0
 11
17.43072124174099
 21
-49.55272627210438
 31
0.0
  0
LINE
  5
14A
  8
BLATTANSICHT_1_GEOMETRIEAN
  6
VOLLINIE
 62
    18
 10
9.78063131183826
 20
-48.00471678526454
 30
0.0
 11
9.919444189913953
 21
-48.02763488401325
 31
0.0
  0
LINE
  5
14B
  8
BLATTANSICHT_1_GEOMETRIEAN
  6
VOLLINIE
 62
    18
 10
9.640616727422438
 20
-47.9909265524611
 30
0.0
 11
9.78063131183826
 21
-48.00471678526454
 31
0.0
  0
LINE
  5
14C
  8
BLATTANSICHT_1_GEOMETRIEAN
  6
VOLLINIE
 62
    18
 10
9.500000000603603
 20
-47.98632323758056
 30
0.0
 11
9.640616727422438
 21
-47.9909265524611
 31
0.0
  0
LINE
  5
14D
  8
BLATTANSICHT_1_GEOMETRIEAN
  6
VOLLINIE
 62
    18
 10
19.50000000512549
 20
-42.63632323758056
 30
0.0
 11
0.0000000002174984
 21
-42.63632323758056
 31
0.0
  0
LINE
  5
14E
  8
BLATTANSICHT_1_GEOMETRIEAN
  6
VOLLINIE
 62
    18
 10
9.359383275788103
 20
-47.99092655300189
 30
0.0
 11
9.500000000603603
 21
-47.98632323758056
 31
0.0
  0
LINE
  5
14F
  8
BLATTANSICHT_1_GEOMETRIEAN
  6
VOLLINIE
 62
    18
 10
9.080555817956594
 20
-48.02763488334741
 30
0.0
 11
9.219368693732257
 21
-48.00471678535599
 31
0.0
  0
LINE
  5
150
  8
BLATTANSICHT_1_GEOMETRIEAN
  6
VOLLINIE
 62
    18
 10
9.219368693732257
 20
-48.00471678535599
 30
0.0
 11
9.359383275788103
 21
-47.99092655300189
 31
0.0
  0
LINE
  5
151
  8
BLATTANSICHT_1_GEOMETRIEAN
  6
VOLLINIE
 62
    18
 10
8.72075822458629
 20
-48.13250631670478
 30
0.0
 11
8.89836762842013
 21
-48.07221604886939
 31
0.0
  0
LINE
  5
152
  8
BLATTANSICHT_1_GEOMETRIEAN
  6
VOLLINIE
 62
    18
 10
8.549079321284193
 20
-48.20804684150348
 30
0.0
 11
8.72075822458629
 21
-48.13250631670478
 31
0.0
  0
LINE
  5
153
  8
BLATTANSICHT_1_GEOMETRIEAN
  6
VOLLINIE
 62
    18
 10
8.384637498652218
 20
-48.2982627142496
 30
0.0
 11
8.549079321284193
 21
-48.20804684150348
 31
0.0
  0
LINE
  5
154
  8
BLATTANSICHT_1_GEOMETRIEAN
  6
VOLLINIE
 62
    18
 10
8.22868425827405
 20
-48.40246733766632
 30
0.0
 11
8.384637498652218
 21
-48.2982627142496
 31
0.0
  0
LINE
  5
155
  8
BLATTANSICHT_1_GEOMETRIEAN
  6
VOLLINIE
 62
    18
 10
8.082406498495804
 20
-48.51986765163581
 30
0.0
 11
8.22868425827405
 21
-48.40246733766632
 31
0.0
  0
LINE
  5
156
  8
BLATTANSICHT_1_GEOMETRIEAN
  6
VOLLINIE
 62
    18
 10
7.946917481412823
 20
-48.64957016886566
 30
0.0
 11
8.082406498495804
 21
-48.51986765163581
 31
0.0
  0
LINE
  5
157
  8
BLATTANSICHT_1_GEOMETRIEAN
  6
VOLLINIE
 62
    18
 10
7.823248360272713
 20
-48.79058777486684
 30
0.0
 11
7.946917481412823
 21
-48.64957016886566
 31
0.0
  0
LINE
  5
158
  8
BLATTANSICHT_1_GEOMETRIEAN
  6
VOLLINIE
 62
    18
 10
7.712340331776456
 20
-48.94184724049113
 30
0.0
 11
7.823248360272713
 21
-48.79058777486684
 31
0.0
  0
LINE
  5
159
  8
BLATTANSICHT_1_GEOMETRIEAN
  6
VOLLINIE
 62
    18
 10
8.89836762842013
 20
-48.07221604886939
 30
0.0
 11
9.080555817956594
 21
-48.02763488334741
 31
0.0
  0
LINE
  5
15A
  8
BLATTANSICHT_1_GEOMETRIEAN
  6
VOLLINIE
 62
    18
 10
7.624133583591611
 20
-49.0857875718839
 30
0.0
 11
7.712340331776456
 21
-48.94184724049113
 31
0.0
  0
LINE
  5
15B
  8
BLATTANSICHT_1_GEOMETRIEAN
  6
VOLLINIE
 62
    18
 10
7.547492175570111
 20
-49.23620480495008
 30
0.0
 11
7.624133583591611
 21
-49.0857875718839
 31
0.0
  0
LINE
  5
15C
  8
BLATTANSICHT_1_GEOMETRIEAN
  6
VOLLINIE
 62
    18
 10
7.482888627474772
 20
-49.39217156743588
 30
0.0
 11
7.547492175570111
 21
-49.23620480495008
 31
0.0
  0
LINE
  5
15D
  8
BLATTANSICHT_1_GEOMETRIEAN
  6
VOLLINIE
 62
    18
 10
7.430721241659535
 20
-49.55272627239344
 30
0.0
 11
7.482888627474772
 21
-49.39217156743588
 31
0.0
  0
LINE
  5
15E
  8
BLATTANSICHT_1_GEOMETRIEAN
  6
VOLLINIE
 62
    18
 10
7.391311647402979
 20
-49.71687904668414
 30
0.0
 11
7.430721241659535
 21
-49.55272627239344
 31
0.0
  0
LINE
  5
15F
  8
BLATTANSICHT_1_GEOMETRIEAN
  6
VOLLINIE
 62
    18
 10
7.364902817951471
 20
-49.88361783392169
 30
0.0
 11
7.391311647402979
 21
-49.71687904668414
 31
0.0
  0
LINE
  5
160
  8
BLATTANSICHT_1_GEOMETRIEAN
  6
VOLLINIE
 62
    18
 10
7.351657572531889
 20
-50.05191463399886
 30
0.0
 11
7.364902817951471
 21
-49.88361783392169
 31
0.0
  0
LINE
  5
161
  8
BLATTANSICHT_1_GEOMETRIEAN
  6
VOLLINIE
 62
    18
 10
7.391311647175757
 20
-50.55576742852215
 30
0.0
 11
7.364902817814579
 21
-50.3890286412703
 31
0.0
  0
LINE
  5
162
  8
BLATTANSICHT_1_GEOMETRIEAN
  6
VOLLINIE
 62
    18
 10
7.364902817814579
 20
-50.3890286412703
 30
0.0
 11
7.351657572486161
 21
-50.22073184118594
 31
0.0
  0
LINE
  5
163
  8
BLATTANSICHT_1_GEOMETRIEAN
  6
VOLLINIE
 62
    18
 10
7.351657572531889
 20
-50.05191463399886
 30
0.0
 11
7.351657572486161
 21
-50.22073184118594
 31
0.0
  0
LINE
  5
164
  8
BLATTANSICHT_1_GEOMETRIEAN
  6
VOLLINIE
 62
    18
 10
0.0000000002174984
 20
-42.63632323758056
 30
0.0
 11
0.0000000002174984
 21
-57.63632323758056
 31
0.0
  0
LINE
  5
165
  8
BLATTANSICHT_1_GEOMETRIEAN
  6
VOLLINIE
 62
    18
 10
7.482888627096208
 20
-50.88047490788657
 30
0.0
 11
7.430721241353016
 21
-50.71992020286834
 31
0.0
  0
LINE
  5
166
  8
BLATTANSICHT_1_GEOMETRIEAN
  6
VOLLINIE
 62
    18
 10
7.547492175127038
 20
-51.03644167043743
 30
0.0
 11
7.482888627096208
 21
-50.88047490788657
 31
0.0
  0
LINE
  5
167
  8
BLATTANSICHT_1_GEOMETRIEAN
  6
VOLLINIE
 62
    18
 10
7.624133583091822
 20
-51.18685890357228
 30
0.0
 11
7.547492175127038
 21
-51.03644167043743
 31
0.0
  0
LINE
  5
168
  8
BLATTANSICHT_1_GEOMETRIEAN
  6
VOLLINIE
 62
    18
 10
7.712340331227894
 20
-51.33079923503652
 30
0.0
 11
7.624133583091822
 21
-51.18685890357228
 31
0.0
  0
LINE
  5
169
  8
BLATTANSICHT_1_GEOMETRIEAN
  6
VOLLINIE
 62
    18
 10
7.430721241353016
 20
-50.71992020286834
 30
0.0
 11
7.391311647175757
 21
-50.55576742852215
 31
0.0
  0
LINE
  5
16A
  8
BLATTANSICHT_1_GEOMETRIEAN
  6
VOLLINIE
 62
    18
 10
7.823248359707254
 20
-51.4820587007772
 30
0.0
 11
7.712340331227894
 21
-51.33079923503652
 31
0.0
  0
LINE
  5
16B
  8
BLATTANSICHT_1_GEOMETRIEAN
  6
VOLLINIE
 62
    18
 10
7.946917480846166
 20
-51.62307630689101
 30
0.0
 11
7.823248359707254
 21
-51.4820587007772
 31
0.0
  0
LINE
  5
16C
  8
BLATTANSICHT_1_GEOMETRIEAN
  6
VOLLINIE
 62
    18
 10
8.082406497942841
 20
-51.75277882422787
 30
0.0
 11
7.946917480846166
 21
-51.62307630689101
 31
0.0
  0
LINE
  5
16D
  8
BLATTANSICHT_1_GEOMETRIEAN
  6
VOLLINIE
 62
    18
 10
8.228684257748634
 20
-51.87017913829705
 30
0.0
 11
8.082406497942841
 21
-51.75277882422787
 31
0.0
  0
LINE
  5
16E
  8
BLATTANSICHT_1_GEOMETRIEAN
  6
VOLLINIE
 62
    18
 10
8.384637498167015
 20
-51.97438376180459
 30
0.0
 11
8.228684257748634
 21
-51.87017913829705
 31
0.0
  0
LINE
  5
16F
  8
BLATTANSICHT_1_GEOMETRIEAN
  6
VOLLINIE
 62
    18
 10
8.549079320850492
 20
-52.06459963463126
 30
0.0
 11
8.384637498167015
 21
-51.97438376180459
 31
0.0
  0
LINE
  5
170
  8
BLATTANSICHT_1_GEOMETRIEAN
  6
VOLLINIE
 62
    18
 10
8.720758224213851
 20
-52.140140159499
 30
0.0
 11
8.549079320850492
 21
-52.06459963463126
 31
0.0
  0
LINE
  5
171
  8
BLATTANSICHT_1_GEOMETRIEAN
  6
VOLLINIE
 62
    18
 10
8.898367628117096
 20
-52.20043042739089
 30
0.0
 11
8.720758224213851
 21
-52.140140159499
 31
0.0
  0
LINE
  5
172
  8
BLATTANSICHT_1_GEOMETRIEAN
  6
VOLLINIE
 62
    18
 10
9.080555817729373
 20
-52.245011592956
 30
0.0
 11
8.898367628117096
 21
-52.20043042739089
 31
0.0
  0
LINE
  5
173
  8
BLATTANSICHT_1_GEOMETRIEAN
  6
VOLLINIE
 62
    18
 10
9.219368693870592
 20
-52.26792969101083
 30
0.0
 11
9.080555817729373
 21
-52.245011592956
 31
0.0
  0
LINE
  5
174
  8
BLATTANSICHT_1_GEOMETRIEAN
  6
VOLLINIE
 62
    18
 10
9.35938327629775
 20
-52.28171992338012
 30
0.0
 11
9.219368693870592
 21
-52.26792969101083
 31
0.0
  0
LINE
  5
175
  8
BLATTANSICHT_1_GEOMETRIEAN
  6
VOLLINIE
 62
    18
 10
9.500000001099432
 20
-52.28632323758054
 30
0.0
 11
9.35938327629775
 21
-52.28171992338012
 31
0.0
  0
LINE
  5
176
  8
BLATTANSICHT_1_GEOMETRIEAN
  6
VOLLINIE
 62
    18
 10
19.64061672810799
 20
-52.28171992248606
 30
0.0
 11
19.50000000109944
 21
-52.28632323758054
 31
0.0
  0
LINE
  5
177
  8
BLATTANSICHT_1_GEOMETRIEAN
  6
VOLLINIE
 62
    18
 10
19.78063131270898
 20
-52.26792968961293
 30
0.0
 11
19.64061672810799
 21
-52.28171992248606
 31
0.0
  0
LINE
  5
178
  8
BLATTANSICHT_1_GEOMETRIEAN
  6
VOLLINIE
 62
    18
 10
19.91944419096283
 20
-52.24501159077021
 30
0.0
 11
19.78063131270898
 21
-52.26792968961293
 31
0.0
  0
LINE
  5
179
  8
BLATTANSICHT_1_GEOMETRIEAN
  6
VOLLINIE
 62
    18
 10
20.10163238000533
 20
-52.20043042466967
 30
0.0
 11
19.91944419096283
 21
-52.24501159077021
 31
0.0
  0
LINE
  5
17A
  8
BLATTANSICHT_1_GEOMETRIEAN
  6
VOLLINIE
 62
    18
 10
20.27924178330628
 20
-52.14014015632925
 30
0.0
 11
20.10163238000533
 21
-52.20043042466967
 31
0.0
  0
LINE
  5
17B
  8
BLATTANSICHT_1_GEOMETRIEAN
  6
VOLLINIE
 62
    18
 10
20.45092068604552
 20
-52.06459963110127
 30
0.0
 11
20.27924178330628
 21
-52.14014015632925
 31
0.0
  0
LINE
  5
17C
  8
BLATTANSICHT_1_GEOMETRIEAN
  6
VOLLINIE
 62
    18
 10
20.61536250809377
 20
-51.97438375800276
 30
0.0
 11
20.45092068604552
 21
-52.06459963110127
 31
0.0
  0
LINE
  5
17D
  8
BLATTANSICHT_1_GEOMETRIEAN
  6
VOLLINIE
 62
    18
 10
20.77131574787631
 20
-51.8701791343107
 30
0.0
 11
20.61536250809377
 21
-51.97438375800276
 31
0.0
  0
LINE
  5
17E
  8
BLATTANSICHT_1_GEOMETRIEAN
  6
VOLLINIE
 62
    18
 10
20.91759350705591
 20
-51.75277882014216
 30
0.0
 11
20.77131574787631
 21
-51.8701791343107
 31
0.0
  0
LINE
  5
17F
  8
BLATTANSICHT_1_GEOMETRIEAN
  6
VOLLINIE
 62
    18
 10
21.05308252354584
 20
-51.62307630278777
 30
0.0
 11
20.91759350705591
 21
-51.75277882014216
 31
0.0
  0
LINE
  5
180
  8
BLATTANSICHT_1_GEOMETRIEAN
  6
VOLLINIE
 62
    18
 10
21.17675164410677
 20
-51.48205869673391
 30
0.0
 11
21.05308252354584
 21
-51.62307630278777
 31
0.0
  0
LINE
  5
181
  8
BLATTANSICHT_1_GEOMETRIEAN
  6
VOLLINIE
 62
    18
 10
21.28765967204557
 20
-51.33079923112531
 30
0.0
 11
21.17675164410677
 21
-51.48205869673391
 31
0.0
  0
LINE
  5
182
  8
BLATTANSICHT_1_GEOMETRIEAN
  6
VOLLINIE
 62
    18
 10
21.37586641962913
 20
-51.18685890002335
 30
0.0
 11
21.28765967204557
 21
-51.33079923112531
 31
0.0
  0
LINE
  5
183
  8
BLATTANSICHT_1_GEOMETRIEAN
  6
VOLLINIE
 62
    18
 10
21.45250782711336
 20
-51.03644166731429
 30
0.0
 11
21.37586641962913
 21
-51.18685890002335
 31
0.0
  0
LINE
  5
184
  8
BLATTANSICHT_1_GEOMETRIEAN
  6
VOLLINIE
 62
    18
 10
21.51711137474192
 20
-50.88047490524358
 30
0.0
 11
21.45250782711336
 21
-51.03644166731429
 31
0.0
  0
LINE
  5
185
  8
BLATTANSICHT_1_GEOMETRIEAN
  6
VOLLINIE
 62
    18
 10
21.60868835411277
 20
-50.55576742696299
 30
0.0
 11
21.5692787601664
 21
-50.71992020075008
 31
0.0
  0
LINE
  5
186
  8
BLATTANSICHT_1_GEOMETRIEAN
  6
VOLLINIE
 62
    18
 10
21.5692787601664
 20
-50.71992020075008
 30
0.0
 11
21.51711137474192
 21
-50.88047490524358
 31
0.0
  0
LINE
  5
187
  8
BLATTANSICHT_1_GEOMETRIEAN
  6
VOLLINIE
 62
    18
 10
26.63292387365531
 20
-52.45395069162505
 30
0.0
 11
26.79277440389365
 21
-51.8871634636108
 31
0.0
  0
LINE
  5
188
  8
BLATTANSICHT_1_GEOMETRIEAN
  6
VOLLINIE
 62
    18
 10
26.97688000329364
 20
-50.72476645455207
 30
0.0
 11
26.99999999238748
 21
-50.13632323758055
 31
0.0
  0
LINE
  5
189
  8
BLATTANSICHT_1_GEOMETRIEAN
  6
VOLLINIE
 62
    18
 10
26.90766255499087
 20
-51.30958172342591
 30
0.0
 11
26.97688000329364
 21
-50.72476645455207
 31
0.0
  0
LINE
  5
18A
  8
BLATTANSICHT_1_GEOMETRIEAN
  6
VOLLINIE
 62
    18
 10
26.79277440389365
 20
-51.8871634636108
 30
0.0
 11
26.90766255499087
 21
-51.30958172342591
 31
0.0
  0
LINE
  5
18B
  8
BLATTANSICHT_1_GEOMETRIEAN
  6
VOLLINIE
 62
    18
 10
26.42909650038149
 20
-53.00644897758055
 30
0.0
 11
26.63292387365531
 21
-52.45395069162505
 31
0.0
  0
LINE
  5
18C
  8
BLATTANSICHT_1_GEOMETRIEAN
  6
VOLLINIE
 62
    18
 10
21.51711137479579
 20
-49.39217156989457
 30
0.0
 11
21.56927876021001
 21
-49.55272627439668
 31
0.0
  0
LINE
  5
18D
  8
BLATTANSICHT_1_GEOMETRIEAN
  6
VOLLINIE
 62
    18
 10
21.45250782717642
 20
-49.23620480781459
 30
0.0
 11
21.51711137479579
 21
-49.39217156989457
 31
0.0
  0
LINE
  5
18E
  8
BLATTANSICHT_1_GEOMETRIEAN
  6
VOLLINIE
 62
    18
 10
21.28765967212364
 20
-48.94184724398362
 30
0.0
 11
21.37586641970025
 21
-49.08578757509577
 31
0.0
  0
LINE
  5
18F
  8
BLATTANSICHT_1_GEOMETRIEAN
  6
VOLLINIE
 62
    18
 10
21.37586641970025
 20
-49.08578757509577
 30
0.0
 11
21.45250782717642
 21
-49.23620480781459
 31
0.0
  0
LINE
  5
190
  8
BLATTANSICHT_1_GEOMETRIEAN
  6
VOLLINIE
 62
    18
 10
21.56927876021001
 20
-49.55272627439668
 30
0.0
 11
21.60868835414509
 21
-49.71687904819169
 31
0.0
  0
LINE
  5
191
  8
BLATTANSICHT_1_GEOMETRIEAN
  6
VOLLINIE
 62
    18
 10
19.08055581903781
 20
-48.02763488313232
 30
0.0
 11
19.21936869446089
 21
-48.00471678526005
 31
0.0
  0
LINE
  5
192
  8
BLATTANSICHT_1_GEOMETRIEAN
  6
VOLLINIE
 62
    18
 10
19.35938327615478
 20
-47.99092655297786
 30
0.0
 11
19.50000000021749
 21
-47.98632323758056
 31
0.0
  0
LINE
  5
193
  8
BLATTANSICHT_1_GEOMETRIEAN
  6
VOLLINIE
 62
    18
 10
19.21936869446089
 20
-48.00471678526005
 30
0.0
 11
19.35938327615478
 21
-47.99092655297786
 31
0.0
  0
LINE
  5
194
  8
BLATTANSICHT_1_GEOMETRIEAN
  6
VOLLINIE
 62
    18
 10
18.90480366097626
 20
-48.07035099308205
 30
0.0
 11
19.08055581903781
 21
-48.02763488313232
 31
0.0
  0
LINE
  5
195
  8
BLATTANSICHT_1_GEOMETRIEAN
  6
VOLLINIE
 62
    18
 10
18.73326371444106
 20
-48.12768801301872
 30
0.0
 11
18.90480366097626
 21
-48.07035099308205
 31
0.0
  0
LINE
  5
196
  8
BLATTANSICHT_1_GEOMETRIEAN
  6
VOLLINIE
 62
    18
 10
18.56714996966044
 20
-48.19924016817483
 30
0.0
 11
18.73326371444106
 21
-48.12768801301872
 31
0.0
  0
LINE
  5
197
  8
BLATTANSICHT_1_GEOMETRIEAN
  6
VOLLINIE
 62
    18
 10
18.4076380155688
 20
-48.284501083103
 30
0.0
 11
18.56714996966044
 21
-48.19924016817483
 31
0.0
  0
LINE
  5
198
  8
BLATTANSICHT_1_GEOMETRIEAN
  6
VOLLINIE
 62
    18
 10
18.25585672014978
 20
-48.38286736530096
 30
0.0
 11
18.4076380155688
 21
-48.284501083103
 31
0.0
  0
LINE
  5
199
  8
BLATTANSICHT_1_GEOMETRIEAN
  6
VOLLINIE
 62
    18
 10
18.1128802414243
 20
-48.49364287542743
 30
0.0
 11
18.25585672014978
 21
-48.38286736530096
 31
0.0
  0
LINE
  5
19A
  8
BLATTANSICHT_1_GEOMETRIEAN
  6
VOLLINIE
 62
    18
 10
17.97972042562147
 20
-48.61604365388854
 30
0.0
 11
18.1128802414243
 21
-48.49364287542743
 31
0.0
  0
LINE
  5
19B
  8
BLATTANSICHT_1_GEOMETRIEAN
  6
VOLLINIE
 62
    18
 10
17.8835444165639
 20
-48.71872973319386
 30
0.0
 11
17.97972042562147
 21
-48.61604365388854
 31
0.0
  0
LINE
  5
19C
  8
BLATTANSICHT_1_GEOMETRIEAN
  6
VOLLINIE
 62
    18
 10
17.79429031880876
 20
-48.82748616580938
 30
0.0
 11
17.8835444165639
 21
-48.71872973319386
 31
0.0
  0
LINE
  5
19D
  8
BLATTANSICHT_1_GEOMETRIEAN
  6
VOLLINIE
 62
    18
 10
17.71234033212334
 20
-48.94184723997189
 30
0.0
 11
17.79429031880876
 21
-48.82748616580938
 31
0.0
  0
LINE
  5
19E
  8
BLATTANSICHT_1_GEOMETRIEAN
  6
VOLLINIE
 62
    18
 10
17.36490281796687
 20
-49.88361783379102
 30
0.0
 11
17.3913116474457
 21
-49.71687904646907
 31
0.0
  0
LINE
  5
19F
  8
BLATTANSICHT_1_GEOMETRIEAN
  6
VOLLINIE
 62
    18
 10
17.35165757253354
 20
-50.05191463395504
 30
0.0
 11
17.36490281796687
 21
-49.88361783379102
 31
0.0
  0
LINE
  5
1A0
  8
BLATTANSICHT_1_GEOMETRIEAN
  6
VOLLINIE
 62
    18
 10
17.36490281782998
 20
-50.38902864140096
 30
0.0
 11
17.35165757248782
 21
-50.22073184122977
 31
0.0
  0
LINE
  5
1A1
  8
BLATTANSICHT_1_GEOMETRIEAN
  6
VOLLINIE
 62
    18
 10
17.39131164721848
 20
-50.55576742873722
 30
0.0
 11
17.36490281782998
 21
-50.38902864140096
 31
0.0
  0
LINE
  5
1A2
  8
BLATTANSICHT_1_GEOMETRIEAN
  6
VOLLINIE
 62
    18
 10
17.35165757253354
 20
-50.05191463395504
 30
0.0
 11
17.35165757248782
 21
-50.22073184122977
 31
0.0
  0
LINE
  5
1A3
  8
BLATTANSICHT_1_GEOMETRIEAN
  6
VOLLINIE
 62
    18
 10
17.43072124143447
 20
-50.7199202031574
 30
0.0
 11
17.39131164721848
 21
-50.55576742873722
 31
0.0
  0
LINE
  5
1A4
  8
BLATTANSICHT_1_GEOMETRIEAN
  6
VOLLINIE
 62
    18
 10
17.48288862722814
 20
-50.88047490824439
 30
0.0
 11
17.43072124143447
 21
-50.7199202031574
 31
0.0
  0
LINE
  5
1A5
  8
BLATTANSICHT_1_GEOMETRIEAN
  6
VOLLINIE
 62
    18
 10
17.54749217532057
 20
-51.03644167085739
 30
0.0
 11
17.48288862722814
 21
-50.88047490824439
 31
0.0
  0
LINE
  5
1A6
  8
BLATTANSICHT_1_GEOMETRIEAN
  6
VOLLINIE
 62
    18
 10
17.62413358335731
 20
-51.18685890404645
 30
0.0
 11
17.54749217532057
 21
-51.03644167085739
 31
0.0
  0
LINE
  5
1A7
  8
BLATTANSICHT_1_GEOMETRIEAN
  6
VOLLINIE
 62
    18
 10
17.71234033157478
 20
-51.33079923555575
 30
0.0
 11
17.62413358335731
 21
-51.18685890404645
 31
0.0
  0
LINE
  5
1A8
  8
BLATTANSICHT_1_GEOMETRIEAN
  6
VOLLINIE
 62
    18
 10
17.79429031823764
 20
-51.44516030979494
 30
0.0
 11
17.71234033157478
 21
-51.33079923555575
 31
0.0
  0
LINE
  5
1A9
  8
BLATTANSICHT_1_GEOMETRIEAN
  6
VOLLINIE
 62
    18
 10
17.88354441597779
 20
-51.55391674248642
 30
0.0
 11
17.79429031823764
 21
-51.44516030979494
 31
0.0
  0
LINE
  5
1AA
  8
BLATTANSICHT_1_GEOMETRIEAN
  6
VOLLINIE
 62
    18
 10
17.97972042502771
 20
-51.65660282186633
 30
0.0
 11
17.88354441597779
 21
-51.55391674248642
 31
0.0
  0
LINE
  5
1AB
  8
BLATTANSICHT_1_GEOMETRIEAN
  6
VOLLINIE
 62
    18
 10
18.11288024084909
 20
-51.77900360043546
 30
0.0
 11
17.97972042502771
 21
-51.65660282186633
 31
0.0
  0
LINE
  5
1AC
  8
BLATTANSICHT_1_GEOMETRIEAN
  6
VOLLINIE
 62
    18
 10
18.25585671960664
 20
-51.88977911066227
 30
0.0
 11
18.11288024084909
 21
-51.77900360043546
 31
0.0
  0
LINE
  5
1AD
  8
BLATTANSICHT_1_GEOMETRIEAN
  6
VOLLINIE
 62
    18
 10
18.40763801506999
 20
-51.98814539295139
 30
0.0
 11
18.25585671960664
 21
-51.88977911066227
 31
0.0
  0
LINE
  5
1AE
  8
BLATTANSICHT_1_GEOMETRIEAN
  6
VOLLINIE
 62
    18
 10
18.56714996921694
 20
-52.07340630796021
 30
0.0
 11
18.40763801506999
 21
-51.98814539295139
 31
0.0
  0
LINE
  5
1AF
  8
BLATTANSICHT_1_GEOMETRIEAN
  6
VOLLINIE
 62
    18
 10
18.73326371406231
 20
-52.14495846318533
 30
0.0
 11
18.56714996921694
 21
-52.07340630796021
 31
0.0
  0
LINE
  5
1B0
  8
BLATTANSICHT_1_GEOMETRIEAN
  6
VOLLINIE
 62
    18
 10
18.90480366067019
 20
-52.20229548317838
 30
0.0
 11
18.73326371406231
 21
-52.14495846318533
 31
0.0
  0
LINE
  5
1B1
  8
BLATTANSICHT_1_GEOMETRIEAN
  6
VOLLINIE
 62
    18
 10
19.08055581881058
 20
-52.24501159317109
 30
0.0
 11
18.90480366067019
 21
-52.20229548317838
 31
0.0
  0
LINE
  5
1B2
  8
BLATTANSICHT_1_GEOMETRIEAN
  6
VOLLINIE
 62
    18
 10
19.21936869459923
 20
-52.26792969110677
 30
0.0
 11
19.08055581881058
 21
-52.24501159317109
 31
0.0
  0
LINE
  5
1B3
  8
BLATTANSICHT_1_GEOMETRIEAN
  6
VOLLINIE
 62
    18
 10
19.35938327666442
 20
-52.28171992340415
 30
0.0
 11
19.21936869459923
 21
-52.26792969110677
 31
0.0
  0
LINE
  5
1B4
  8
BLATTANSICHT_1_GEOMETRIEAN
  6
VOLLINIE
 62
    18
 10
19.50000000109944
 20
-52.28632323758054
 30
0.0
 11
19.35938327666442
 21
-52.28171992340415
 31
0.0
  0
LINE
  5
1B5
  8
BLATTANSICHT_1_GEOMETRIEAN
  6
VOLLINIE
 62
    18
 10
9.919444189881615
 20
-52.24501159098527
 30
0.0
 11
9.780631311980342
 21
-52.26792968970886
 31
0.0
  0
LINE
  5
1B6
  8
BLATTANSICHT_1_GEOMETRIEAN
  6
VOLLINIE
 62
    18
 10
9.640616727741321
 20
-52.28171992251009
 30
0.0
 11
9.500000001099432
 21
-52.28632323758054
 31
0.0
  0
LINE
  5
1B7
  8
BLATTANSICHT_1_GEOMETRIEAN
  6
VOLLINIE
 62
    18
 10
9.780631311980342
 20
-52.26792968970886
 30
0.0
 11
9.640616727741321
 21
-52.28171992251009
 31
0.0
  0
LINE
  5
1B8
  8
BLATTANSICHT_1_GEOMETRIEAN
  6
VOLLINIE
 62
    18
 10
0.0000000002174984
 20
-57.63632323758056
 30
0.0
 11
19.50000000021749
 21
-57.63632323758056
 31
0.0
  0
LINE
  5
1B9
  8
BLATTANSICHT_1_GEOMETRIEAN
  6
VOLLINIE
 62
    18
 10
19.86852543441187
 20
-42.64538277563908
 30
0.0
 11
19.50000000512549
 21
-42.63632323758056
 31
0.0
  0
LINE
  5
1BA
  8
BLATTANSICHT_1_GEOMETRIEAN
  6
VOLLINIE
 62
    18
 10
20.2365594761955
 20
-42.67257885969978
 30
0.0
 11
19.86852543441187
 21
-42.64538277563908
 31
0.0
  0
LINE
  5
1BB
  8
BLATTANSICHT_1_GEOMETRIEAN
  6
VOLLINIE
 62
    18
 10
20.60217795844448
 20
-42.71775169392077
 30
0.0
 11
20.2365594761955
 21
-42.67257885969978
 31
0.0
  0
LINE
  5
1BC
  8
BLATTANSICHT_1_GEOMETRIEAN
  6
VOLLINIE
 62
    18
 10
20.96464641614805
 20
-42.78072598947747
 30
0.0
 11
20.60217795844448
 21
-42.71775169392077
 31
0.0
  0
LINE
  5
1BD
  8
BLATTANSICHT_1_GEOMETRIEAN
  6
VOLLINIE
 62
    18
 10
21.32332013309518
 20
-42.86133157483324
 30
0.0
 11
20.96464641614805
 21
-42.78072598947747
 31
0.0
  0
LINE
  5
1BE
  8
BLATTANSICHT_1_GEOMETRIEAN
  6
VOLLINIE
 62
    18
 10
21.67755430773608
 20
-42.95939790441683
 30
0.0
 11
21.32332013309518
 21
-42.86133157483324
 31
0.0
  0
LINE
  5
1BF
  8
BLATTANSICHT_1_GEOMETRIEAN
  6
VOLLINIE
 62
    18
 10
22.02670429635973
 20
-43.07475362453727
 30
0.0
 11
21.67755430773608
 21
-42.95939790441683
 31
0.0
  0
LINE
  5
1C0
  8
BLATTANSICHT_1_GEOMETRIEAN
  6
VOLLINIE
 62
    18
 10
22.37012575534948
 20
-43.20722674758056
 30
0.0
 11
22.02670429635973
 21
-43.07475362453727
 31
0.0
  0
LINE
  5
1C1
  8
BLATTANSICHT_1_GEOMETRIEAN
  6
VOLLINIE
 62
    18
 10
19.50000000021749
 20
-47.98632323758056
 30
0.0
 11
19.64061672778911
 21
-47.99092655248514
 31
0.0
  0
LINE
  5
1C2
  8
BLATTANSICHT_1_GEOMETRIEAN
  6
VOLLINIE
 62
    18
 10
19.78063131256691
 20
-48.00471678536046
 30
0.0
 11
19.91944419099515
 21
-48.02763488422832
 31
0.0
  0
LINE
  5
1C3
  8
BLATTANSICHT_1_GEOMETRIEAN
  6
VOLLINIE
 62
    18
 10
19.64061672778911
 20
-47.99092655248514
 30
0.0
 11
19.78063131256691
 21
-48.00471678536046
 31
0.0
  0
LINE
  5
1C4
  8
BLATTANSICHT_1_GEOMETRIEAN
  6
VOLLINIE
 62
    18
 10
19.91944419099515
 20
-48.02763488422832
 30
0.0
 11
20.10163238004846
 21
-48.072216050335
 31
0.0
  0
LINE
  5
1C5
  8
BLATTANSICHT_1_GEOMETRIEAN
  6
VOLLINIE
 62
    18
 10
20.10163238004846
 20
-48.072216050335
 30
0.0
 11
20.27924178335929
 21
-48.13250631868345
 31
0.0
  0
LINE
  5
1C6
  8
BLATTANSICHT_1_GEOMETRIEAN
  6
VOLLINIE
 62
    18
 10
20.27924178335929
 20
-48.13250631868345
 30
0.0
 11
20.45092068610725
 21
-48.20804684392127
 31
0.0
  0
LINE
  5
1C7
  8
BLATTANSICHT_1_GEOMETRIEAN
  6
VOLLINIE
 62
    18
 10
20.45092068610725
 20
-48.20804684392127
 30
0.0
 11
20.61536250816282
 21
-48.29826271703125
 31
0.0
  0
LINE
  5
1C8
  8
BLATTANSICHT_1_GEOMETRIEAN
  6
VOLLINIE
 62
    18
 10
20.61536250816282
 20
-48.29826271703125
 30
0.0
 11
20.77131574795109
 21
-48.40246734073622
 31
0.0
  0
LINE
  5
1C9
  8
BLATTANSICHT_1_GEOMETRIEAN
  6
VOLLINIE
 62
    18
 10
20.77131574795109
 20
-48.40246734073622
 30
0.0
 11
20.9175935071346
 21
-48.51986765491895
 31
0.0
  0
LINE
  5
1CA
  8
BLATTANSICHT_1_GEOMETRIEAN
  6
VOLLINIE
 62
    18
 10
20.9175935071346
 20
-48.51986765491895
 30
0.0
 11
21.05308252362648
 21
-48.64957017228856
 31
0.0
  0
LINE
  5
1CB
  8
BLATTANSICHT_1_GEOMETRIEAN
  6
VOLLINIE
 62
    18
 10
21.05308252362648
 20
-48.64957017228856
 30
0.0
 11
21.17675164418724
 21
-48.79058777835845
 31
0.0
  0
LINE
  5
1CC
  8
BLATTANSICHT_1_GEOMETRIEAN
  6
VOLLINIE
 62
    18
 10
21.17675164418724
 20
-48.79058777835845
 30
0.0
 11
21.28765967212364
 21
-48.94184724398362
 31
0.0
  0
LINE
  5
1CD
  8
BLATTANSICHT_1_GEOMETRIEAN
  6
VOLLINIE
 62
    18
 10
22.70717417957179
 20
-43.35664523761011
 30
0.0
 11
22.37012575534948
 21
-43.20722674758056
 31
0.0
  0
LINE
  5
1CE
  8
BLATTANSICHT_1_GEOMETRIEAN
  6
VOLLINIE
 62
    18
 10
23.03676491848279
 20
-43.52260311098555
 30
0.0
 11
22.70717417957179
 21
-43.35664523761011
 31
0.0
  0
LINE
  5
1CF
  8
BLATTANSICHT_1_GEOMETRIEAN
  6
VOLLINIE
 62
    18
 10
23.35722988370601
 20
-43.70423355957364
 30
0.0
 11
23.03676491848279
 21
-43.52260311098555
 31
0.0
  0
LINE
  5
1D0
  8
BLATTANSICHT_1_GEOMETRIEAN
  6
VOLLINIE
 62
    18
 10
23.66798683767735
 20
-43.90110987132265
 30
0.0
 11
23.35722988370601
 21
-43.70423355957364
 31
0.0
  0
LINE
  5
1D1
  8
BLATTANSICHT_1_GEOMETRIEAN
  6
VOLLINIE
 62
    18
 10
23.96850392933725
 20
-44.11282984624681
 30
0.0
 11
23.66798683767735
 21
-43.90110987132265
 31
0.0
  0
LINE
  5
1D2
  8
BLATTANSICHT_1_GEOMETRIEAN
  6
VOLLINIE
 62
    18
 10
24.25824940332089
 20
-44.33899086675119
 30
0.0
 11
23.96850392933725
 21
-44.11282984624681
 31
0.0
  0
LINE
  5
1D3
  8
BLATTANSICHT_1_GEOMETRIEAN
  6
VOLLINIE
 62
    18
 10
24.53669197341889
 20
-44.57918962688803
 30
0.0
 11
24.25824940332089
 21
-44.33899086675119
 31
0.0
  0
LINE
  5
1D4
  8
BLATTANSICHT_1_GEOMETRIEAN
  6
VOLLINIE
 62
    18
 10
24.80330086614148
 20
-44.83302237258055
 30
0.0
 11
24.53669197341889
 21
-44.57918962688803
 31
0.0
  0
LINE
  5
1D5
  8
BLATTANSICHT_1_GEOMETRIEAN
  6
VOLLINIE
 62
    18
 10
25.05754498565462
 20
-45.10008518375083
 30
0.0
 11
24.80330086614148
 21
-44.83302237258055
 31
0.0
  0
LINE
  5
1D6
  8
BLATTANSICHT_1_GEOMETRIEAN
  6
VOLLINIE
 62
    18
 10
25.2985172649256
 20
-45.37951784626151
 30
0.0
 11
25.05754498565462
 21
-45.10008518375083
 31
0.0
  0
LINE
  5
1D7
  8
BLATTANSICHT_1_GEOMETRIEAN
  6
VOLLINIE
 62
    18
 10
25.52505683500341
 20
-45.66992758363325
 30
0.0
 11
25.2985172649256
 21
-45.37951784626151
 31
0.0
  0
LINE
  5
1D8
  8
BLATTANSICHT_1_GEOMETRIEAN
  6
VOLLINIE
 62
    18
 10
25.73680452063692
 20
-45.9707177144812
 30
0.0
 11
25.52505683500341
 21
-45.66992758363325
 31
0.0
  0
LINE
  5
1D9
  8
BLATTANSICHT_1_GEOMETRIEAN
  6
VOLLINIE
 62
    18
 10
25.93342098134865
 20
-46.28131422597745
 30
0.0
 11
25.73680452063692
 21
-45.9707177144812
 31
0.0
  0
LINE
  5
1DA
  8
BLATTANSICHT_1_GEOMETRIEAN
  6
VOLLINIE
 62
    18
 10
26.11456716709742
 20
-46.60114273372589
 30
0.0
 11
25.93342098134865
 21
-46.28131422597745
 31
0.0
  0
LINE
  5
1DB
  8
BLATTANSICHT_1_GEOMETRIEAN
  6
VOLLINIE
 62
    18
 10
26.27990473628332
 20
-46.92962840179215
 30
0.0
 11
26.11456716709742
 21
-46.60114273372589
 31
0.0
  0
LINE
  5
1DC
  8
BLATTANSICHT_1_GEOMETRIEAN
  6
VOLLINIE
 62
    18
 10
26.42909595863161
 20
-47.26619620222321
 30
0.0
 11
26.27990473628332
 21
-46.92962840179215
 31
0.0
  0
LINE
  5
1DD
  8
BLATTANSICHT_1_GEOMETRIEAN
  6
VOLLINIE
 62
    18
 10
26.56180301101528
 20
-47.61027133061444
 30
0.0
 11
26.42909595863161
 21
-47.26619620222321
 31
0.0
  0
LINE
  5
1DE
  8
BLATTANSICHT_1_GEOMETRIEAN
  6
VOLLINIE
 62
    18
 10
26.67748546176823
 20
-47.96061589300783
 30
0.0
 11
26.56180301101528
 21
-47.61027133061444
 31
0.0
  0
LINE
  5
1DF
  8
BLATTANSICHT_1_GEOMETRIEAN
  6
VOLLINIE
 62
    18
 10
26.77563585343345
 20
-48.31557533317469
 30
0.0
 11
26.67748546176823
 21
-47.96061589300783
 31
0.0
  0
LINE
  5
1E0
  8
BLATTANSICHT_1_GEOMETRIEAN
  6
VOLLINIE
 62
    18
 10
26.85615450075234
 20
-48.67447818277453
 30
0.0
 11
26.77563585343345
 21
-48.31557533317469
 31
0.0
  0
LINE
  5
1E1
  8
BLATTANSICHT_1_GEOMETRIEAN
  6
VOLLINIE
 62
    18
 10
26.91894539673168
 20
-49.03666456165381
 30
0.0
 11
26.85615450075234
 21
-48.67447818277453
 31
0.0
  0
LINE
  5
1E2
  8
BLATTANSICHT_1_GEOMETRIEAN
  6
VOLLINIE
 62
    18
 10
26.963912989961
 20
-49.40147435410995
 30
0.0
 11
26.91894539673168
 21
-49.03666456165381
 31
0.0
  0
LINE
  5
1E3
  8
BLATTANSICHT_1_GEOMETRIEAN
  6
VOLLINIE
 62
    18
 10
26.99096256252604
 20
-49.76824730778939
 30
0.0
 11
26.963912989961
 21
-49.40147435410995
 31
0.0
  0
LINE
  5
1E4
  8
BLATTANSICHT_1_GEOMETRIEAN
  6
VOLLINIE
 62
    18
 10
26.99999999238748
 20
-50.13632323758055
 30
0.0
 11
26.99096256252604
 21
-49.76824730778939
 31
0.0
  0
LINE
  5
1E5
  8
BLATTANSICHT_1_GEOMETRIEAN
  6
VOLLINIE
 62
    18
 10
21.63509718335026
 20
-49.88361783483557
 30
0.0
 11
21.6483424286198
 21
-50.05191463429776
 31
0.0
  0
LINE
  5
1E6
  8
BLATTANSICHT_1_GEOMETRIEAN
  6
VOLLINIE
 62
    18
 10
21.60868835414509
 20
-49.71687904819169
 30
0.0
 11
21.63509718335026
 21
-49.88361783483557
 31
0.0
  0
LINE
  5
1E7
  8
BLATTANSICHT_1_GEOMETRIEAN
  6
VOLLINIE
 62
    18
 10
21.64834242861329
 20
-50.22073184085996
 30
0.0
 11
21.63509718333078
 21
-50.38902864032112
 31
0.0
  0
LINE
  5
1E8
  8
BLATTANSICHT_1_GEOMETRIEAN
  6
VOLLINIE
 62
    18
 10
21.63509718333078
 20
-50.38902864032112
 30
0.0
 11
21.60868835411277
 21
-50.55576742696299
 31
0.0
  0
LINE
  5
1E9
  8
BLATTANSICHT_1_GEOMETRIEAN
  6
VOLLINIE
 62
    18
 10
21.64834242861329
 20
-50.22073184085996
 30
0.0
 11
21.6483424286198
 21
-50.05191463429776
 31
0.0
  0
LINE
  5
1EA
  8
BLATTANSICHT_1_GEOMETRIEAN
  6
VOLLINIE
 62
    18
 10
26.16334227249625
 20
-53.57868721636937
 30
0.0
 11
26.42909650038149
 21
-53.00644897758055
 31
0.0
  0
LINE
  5
1EB
  8
BLATTANSICHT_1_GEOMETRIEAN
  6
VOLLINIE
 62
    18
 10
25.85043149744531
 20
-54.12656380664612
 30
0.0
 11
26.16334227249625
 21
-53.57868721636937
 31
0.0
  0
LINE
  5
1EC
  8
BLATTANSICHT_1_GEOMETRIEAN
  6
VOLLINIE
 62
    18
 10
25.49257864402816
 20
-54.64620141750338
 30
0.0
 11
25.85043149744531
 21
-54.12656380664612
 31
0.0
  0
LINE
  5
1ED
  8
BLATTANSICHT_1_GEOMETRIEAN
  6
VOLLINIE
 62
    18
 10
25.09231624109562
 20
-55.13392256745991
 30
0.0
 11
25.49257864402816
 21
-54.64620141750338
 31
0.0
  0
LINE
  5
1EE
  8
BLATTANSICHT_1_GEOMETRIEAN
  6
VOLLINIE
 62
    18
 10
24.652476950379
 20
-55.58627564820344
 30
0.0
 11
25.09231624109562
 21
-55.13392256745991
 31
0.0
  0
LINE
  5
1EF
  8
BLATTANSICHT_1_GEOMETRIEAN
  6
VOLLINIE
 62
    18
 10
24.1761735197098
 20
-56.00005935166334
 30
0.0
 11
24.652476950379
 21
-55.58627564820344
 31
0.0
  0
LINE
  5
1F0
  8
BLATTANSICHT_1_GEOMETRIEAN
  6
VOLLINIE
 62
    18
 10
23.66677675531949
 20
-56.37234532758055
 30
0.0
 11
24.1761735197098
 21
-56.00005935166334
 31
0.0
  0
LINE
  5
1F1
  8
BLATTANSICHT_1_GEOMETRIEAN
  6
VOLLINIE
 62
    18
 10
23.12789165910263
 20
-56.70049889880348
 30
0.0
 11
23.66677675531949
 21
-56.37234532758055
 31
0.0
  0
LINE
  5
1F2
  8
BLATTANSICHT_1_GEOMETRIEAN
  6
VOLLINIE
 62
    18
 10
22.56333193210078
 20
-56.98219772336424
 30
0.0
 11
23.12789165910263
 21
-56.70049889880348
 31
0.0
  0
LINE
  5
1F3
  8
BLATTANSICHT_1_GEOMETRIEAN
  6
VOLLINIE
 62
    18
 10
21.97709296890446
 20
-57.21544821348551
 30
0.0
 11
22.56333193210078
 21
-56.98219772336424
 31
0.0
  0
LINE
  5
1F4
  8
BLATTANSICHT_1_GEOMETRIEAN
  6
VOLLINIE
 62
    18
 10
21.37332358956717
 20
-57.39859965269901
 30
0.0
 11
21.97709296890446
 21
-57.21544821348551
 31
0.0
  0
LINE
  5
1F5
  8
BLATTANSICHT_1_GEOMETRIEAN
  6
VOLLINIE
 62
    18
 10
20.7562966771041
 20
-57.53035587611033
 30
0.0
 11
21.37332358956717
 21
-57.39859965269901
 31
0.0
  0
LINE
  5
1F6
  8
BLATTANSICHT_1_GEOMETRIEAN
  6
VOLLINIE
 62
    18
 10
19.50000000021749
 20
-57.63632323758056
 30
0.0
 11
20.13037893824869
 21
-57.60978444337313
 31
0.0
  0
LINE
  5
1F7
  8
BLATTANSICHT_1_GEOMETRIEAN
  6
VOLLINIE
 62
    18
 10
20.13037893824869
 20
-57.60978444337313
 30
0.0
 11
20.7562966771041
 21
-57.53035587611033
 31
0.0
  0
LINE
  5
1F8
  8
BLATTANSICHT_1_GEOMETRIEAN
  6
VOLLINIE
 62
    18
 10
20.13124567309196
 20
-52.1903780662165
 30
0.0
 11
20.08340056170524
 21
-52.20489172221163
 31
0.0
  0
LINE
  5
1F9
  8
BLATTANSICHT_1_GEOMETRIEAN
  6
VOLLINIE
 62
    18
 10
20.29642192724175
 20
-52.13258071206634
 30
0.0
 11
20.24962849104348
 21
-52.15019251450279
 31
0.0
  0
LINE
  5
1FA
  8
BLATTANSICHT_1_GEOMETRIEAN
  6
VOLLINIE
 62
    18
 10
20.46249391722779
 20
-52.05825033903751
 30
0.0
 11
20.40262721668489
 21
-52.08584926621879
 31
0.0
  0
LINE
  5
1FB
  8
BLATTANSICHT_1_GEOMETRIEAN
  6
VOLLINIE
 62
    18
 10
20.61904884230469
 20
-51.9719206282224
 30
0.0
 11
20.58041518371996
 21
-51.99355651674242
 31
0.0
  0
LINE
  5
1FC
  8
BLATTANSICHT_1_GEOMETRIEAN
  6
VOLLINIE
 62
    18
 10
20.80240282770578
 20
-51.84522911484751
 30
0.0
 11
20.76762941486044
 21
-51.87264226329255
 31
0.0
  0
LINE
  5
1FD
  8
BLATTANSICHT_1_GEOMETRIEAN
  6
VOLLINIE
 62
    18
 10
20.95570672507881
 20
-51.71629335106051
 30
0.0
 11
20.90729864262767
 21
-51.76104132241849
 31
0.0
  0
LINE
  5
1FE
  8
BLATTANSICHT_1_GEOMETRIEAN
  6
VOLLINIE
 62
    18
 10
21.07370221208335
 20
-51.59956405412016
 30
0.0
 11
21.03952395012271
 21
-51.63605581323279
 31
0.0
  0
LINE
  5
1FF
  8
BLATTANSICHT_1_GEOMETRIEAN
  6
VOLLINIE
 62
    18
 10
21.18785036442852
 20
-51.46692195202746
 30
0.0
 11
21.15613195492633
 21
-51.50557094613465
 31
0.0
  0
LINE
  5
200
  8
BLATTANSICHT_1_GEOMETRIEAN
  6
VOLLINIE
 62
    18
 10
21.39290123987454
 20
-51.15342618257831
 30
0.0
 11
21.36932792204071
 21
-51.19752875843633
 31
0.0
  0
LINE
  5
201
  8
BLATTANSICHT_1_GEOMETRIEAN
  6
VOLLINIE
 62
    18
 10
21.46543296047425
 20
-51.00523763481717
 30
0.0
 11
21.44155342663192
 21
-51.05794088895559
 31
0.0
  0
LINE
  5
202
  8
BLATTANSICHT_1_GEOMETRIEAN
  6
VOLLINIE
 62
    18
 10
21.53504928837824
 20
-50.82526768334286
 30
0.0
 11
21.49933803978609
 21
-50.923383531875
 31
0.0
  0
LINE
  5
203
  8
BLATTANSICHT_1_GEOMETRIEAN
  6
VOLLINIE
 62
    18
 10
21.58588516705449
 20
-50.6507495374586
 30
0.0
 11
21.55828384919252
 21
-50.75375905749897
 31
0.0
  0
LINE
  5
204
  8
BLATTANSICHT_1_GEOMETRIEAN
  6
VOLLINIE
 62
    18
 10
21.62244445727101
 20
-50.46891480920434
 30
0.0
 11
21.60281983746013
 21
-50.58021155820312
 31
0.0
  0
LINE
  5
205
  8
BLATTANSICHT_1_GEOMETRIEAN
  6
VOLLINIE
 62
    18
 10
21.6444795442268
 20
-50.26981444107382
 30
0.0
 11
21.63275695265656
 21
-50.40380427538854
 31
0.0
  0
LINE
  5
206
  8
BLATTANSICHT_1_GEOMETRIEAN
  6
VOLLINIE
 62
    18
 10
21.64795367702773
 20
-50.04697507693964
 30
0.0
 11
21.64795367707332
 21
-50.22567139755125
 31
0.0
  0
LINE
  5
207
  8
BLATTANSICHT_1_GEOMETRIEAN
  6
VOLLINIE
 62
    18
 10
21.63275695230592
 20
-49.86884219742399
 30
0.0
 11
21.64447954501525
 21
-50.00283204397105
 31
0.0
  0
LINE
  5
208
  8
BLATTANSICHT_1_GEOMETRIEAN
  6
VOLLINIE
 62
    18
 10
21.60281983643206
 20
-49.69243491252644
 30
0.0
 11
21.62244445919194
 21
-49.80373167791778
 31
0.0
  0
LINE
  5
209
  8
BLATTANSICHT_1_GEOMETRIEAN
  6
VOLLINIE
 62
    18
 10
21.55828384694608
 20
-49.51888741059123
 30
0.0
 11
21.58588516999875
 21
-49.62189694979331
 31
0.0
  0
LINE
  5
20A
  8
BLATTANSICHT_1_GEOMETRIEAN
  6
VOLLINIE
 62
    18
 10
21.49933803548829
 20
-49.3492629327486
 30
0.0
 11
21.53504929228435
 21
-49.44737880366503
 31
0.0
  0
LINE
  5
20B
  8
BLATTANSICHT_1_GEOMETRIEAN
  6
VOLLINIE
 62
    18
 10
21.44155342093715
 20
-49.21470557486926
 30
0.0
 11
21.46543296694341
 21
-49.26740885578371
 31
0.0
  0
LINE
  5
20C
  8
BLATTANSICHT_1_GEOMETRIEAN
  6
VOLLINIE
 62
    18
 10
21.3693279161748
 20
-49.07511770699282
 30
0.0
 11
21.39290125477357
 21
-49.11922032164789
 31
0.0
  0
LINE
  5
20D
  8
BLATTANSICHT_1_GEOMETRIEAN
  6
VOLLINIE
 62
    18
 10
21.15613193760943
 20
-48.76707550911708
 30
0.0
 11
21.18785037361059
 21
-48.80572453547991
 31
0.0
  0
LINE
  5
20E
  8
BLATTANSICHT_1_GEOMETRIEAN
  6
VOLLINIE
 62
    18
 10
21.03952393767367
 20
-48.63659064984768
 30
0.0
 11
21.07370223075823
 21
-48.67308244216157
 31
0.0
  0
LINE
  5
20F
  8
BLATTANSICHT_1_GEOMETRIEAN
  6
VOLLINIE
 62
    18
 10
20.90729863126109
 20
-48.51160514345605
 30
0.0
 11
20.95570676637518
 21
-48.55635316346169
 31
0.0
  0
LINE
  5
210
  8
BLATTANSICHT_1_GEOMETRIEAN
  6
VOLLINIE
 62
    18
 10
20.76762940334302
 20
-48.4000042040085
 30
0.0
 11
20.80240292402575
 21
-48.42741743744669
 31
0.0
  0
LINE
  5
211
  8
BLATTANSICHT_1_GEOMETRIEAN
  6
VOLLINIE
 62
    18
 10
20.58041506612383
 20
-48.27908989373668
 30
0.0
 11
20.61904885464435
 21
-48.30072585501078
 31
0.0
  0
LINE
  5
212
  8
BLATTANSICHT_1_GEOMETRIEAN
  6
VOLLINIE
 62
    18
 10
20.40262715227866
 20
-48.18679718043549
 30
0.0
 11
20.46249393252367
 21
-48.21439614434329
 31
0.0
  0
LINE
  5
213
  8
BLATTANSICHT_1_GEOMETRIEAN
  6
VOLLINIE
 62
    18
 10
20.2496284543445
 20
-48.12245394803353
 30
0.0
 11
20.29642194843179
 21
-48.1400657722475
 31
0.0
  0
LINE
  5
214
  8
BLATTANSICHT_1_GEOMETRIEAN
  6
VOLLINIE
 62
    18
 10
20.08340053850746
 20
-48.06775474710567
 30
0.0
 11
20.13124571062223
 21
-48.08226842151414
 31
0.0
  0
LINE
  5
215
  8
BLATTANSICHT_1_GEOMETRIEAN
  6
VOLLINIE
 62
    18
 10
18.87302684024393
 20
-48.08097235703053
 30
0.0
 11
18.92108861469069
 21
-48.06639297696968
 31
0.0
  0
LINE
  5
216
  8
BLATTANSICHT_1_GEOMETRIEAN
  6
VOLLINIE
 62
    18
 10
18.71110263183206
 20
-48.13723372052992
 30
0.0
 11
18.76186618577903
 21
-48.1181276715212
 31
0.0
  0
LINE
  5
217
  8
BLATTANSICHT_1_GEOMETRIEAN
  6
VOLLINIE
 62
    18
 10
18.54687987004468
 20
-48.21007476203813
 30
0.0
 11
18.61638109422934
 21
-48.17803425852349
 31
0.0
  0
LINE
  5
218
  8
BLATTANSICHT_1_GEOMETRIEAN
  6
VOLLINIE
 62
    18
 10
18.39310791994017
 20
-48.29391773410089
 30
0.0
 11
18.45777978180741
 21
-48.25769975093975
 31
0.0
  0
LINE
  5
219
  8
BLATTANSICHT_1_GEOMETRIEAN
  6
VOLLINIE
 62
    18
 10
18.24669779757898
 20
-48.38996352775392
 30
0.0
 11
18.30443319834099
 21
-48.35138596603664
 31
0.0
  0
LINE
  5
21A
  8
BLATTANSICHT_1_GEOMETRIEAN
  6
VOLLINIE
 62
    18
 10
18.10860157863293
 20
-48.49757583112641
 30
0.0
 11
18.15418798530049
 21
-48.46163840559542
 31
0.0
  0
LINE
  5
21B
  8
BLATTANSICHT_1_GEOMETRIEAN
  6
VOLLINIE
 62
    18
 10
17.60709876399491
 20
-49.11922028792834
 30
0.0
 11
17.63067208022009
 21
-49.07511771505415
 31
0.0
  0
LINE
  5
21C
  8
BLATTANSICHT_1_GEOMETRIEAN
  6
VOLLINIE
 62
    18
 10
17.53456704193913
 20
-49.26740883798683
 30
0.0
 11
17.55844657542274
 21
-49.21470558461489
 31
0.0
  0
LINE
  5
21D
  8
BLATTANSICHT_1_GEOMETRIEAN
  6
VOLLINIE
 62
    18
 10
17.46495071323683
 20
-49.44737879095273
 30
0.0
 11
17.50066196168013
 21
-49.34926294279664
 31
0.0
  0
LINE
  5
21E
  8
BLATTANSICHT_1_GEOMETRIEAN
  6
VOLLINIE
 62
    18
 10
17.41411483436696
 20
-49.62189693705088
 30
0.0
 11
17.44171615219036
 21
-49.51888741714369
 31
0.0
  0
LINE
  5
21F
  8
BLATTANSICHT_1_GEOMETRIEAN
  6
VOLLINIE
 62
    18
 10
17.37755554400496
 20
-49.8037316655078
 30
0.0
 11
17.39718016382191
 21
-49.6924349165107
 31
0.0
  0
LINE
  5
220
  8
BLATTANSICHT_1_GEOMETRIEAN
  6
VOLLINIE
 62
    18
 10
17.35552045692909
 20
-50.00283203398019
 30
0.0
 11
17.36724304853308
 21
-49.8688421994913
 31
0.0
  0
LINE
  5
221
  8
BLATTANSICHT_1_GEOMETRIEAN
  6
VOLLINIE
 62
    18
 10
17.35204632406212
 20
-50.22567139835585
 30
0.0
 11
17.35204632405563
 21
-50.04697507752662
 31
0.0
  0
LINE
  5
222
  8
BLATTANSICHT_1_GEOMETRIEAN
  6
VOLLINIE
 62
    18
 10
17.36724304876437
 20
-50.40380427807711
 30
0.0
 11
17.35552045609158
 21
-50.26981443148413
 31
0.0
  0
LINE
  5
223
  8
BLATTANSICHT_1_GEOMETRIEAN
  6
VOLLINIE
 62
    18
 10
17.39718016465085
 20
-50.58021156315222
 30
0.0
 11
17.37755554193909
 21
-50.46891479778517
 31
0.0
  0
LINE
  5
224
  8
BLATTANSICHT_1_GEOMETRIEAN
  6
VOLLINIE
 62
    18
 10
17.44171615416262
 20
-50.75375906519095
 30
0.0
 11
17.41411483120037
 21
-50.65074952613524
 31
0.0
  0
LINE
  5
225
  8
BLATTANSICHT_1_GEOMETRIEAN
  6
VOLLINIE
 62
    18
 10
17.50066196563207
 20
-50.92338354304135
 30
0.0
 11
17.46495070903291
 21
-50.82526767249941
 31
0.0
  0
LINE
  5
226
  8
BLATTANSICHT_1_GEOMETRIEAN
  6
VOLLINIE
 62
    18
 10
17.55844658072991
 20
-51.05794090208384
 30
0.0
 11
17.53456703509709
 21
-51.00523762190804
 31
0.0
  0
LINE
  5
227
  8
BLATTANSICHT_1_GEOMETRIEAN
  6
VOLLINIE
 62
    18
 10
17.63067208565409
 20
-51.1975287700963
 30
0.0
 11
17.60709874867362
 21
-51.15342615839899
 31
0.0
  0
LINE
  5
228
  8
BLATTANSICHT_1_GEOMETRIEAN
  6
VOLLINIE
 62
    18
 10
18.15418808392784
 20
-51.81100814714959
 30
0.0
 11
18.10860156799843
 21
-51.77507063548703
 31
0.0
  0
LINE
  5
229
  8
BLATTANSICHT_1_GEOMETRIEAN
  6
VOLLINIE
 62
    18
 10
18.30443326515145
 20
-51.92126055359702
 30
0.0
 11
18.24669778460285
 21
-51.88268293857163
 31
0.0
  0
LINE
  5
22A
  8
BLATTANSICHT_1_GEOMETRIEAN
  6
VOLLINIE
 62
    18
 10
18.45777983452848
 20
-52.0149467535773
 30
0.0
 11
18.39310790430602
 21
-51.97872873213861
 31
0.0
  0
LINE
  5
22B
  8
BLATTANSICHT_1_GEOMETRIEAN
  6
VOLLINIE
 62
    18
 10
18.61638113872648
 20
-52.09461223698155
 30
0.0
 11
18.54687985138912
 21
-52.06257170435585
 31
0.0
  0
LINE
  5
22C
  8
BLATTANSICHT_1_GEOMETRIEAN
  6
VOLLINIE
 62
    18
 10
18.76186621769471
 20
-52.15451881548258
 30
0.0
 11
18.71110260666057
 21
-52.13541274498935
 31
0.0
  0
LINE
  5
22D
  8
BLATTANSICHT_1_GEOMETRIEAN
  6
VOLLINIE
 62
    18
 10
18.92108863701274
 20
-52.20625350479268
 30
0.0
 11
18.87302679608608
 21
-52.19167410456654
 31
0.0
  0
LINE
  5
22E
  8
BLATTANSICHT_1_GEOMETRIEAN
  6
VOLLINIE
 62
    18
 10
8.86875433445245
 20
-48.08226840750727
 30
0.0
 11
8.916599443517534
 21
-48.0677547521811
 31
0.0
  0
LINE
  5
22F
  8
BLATTANSICHT_1_GEOMETRIEAN
  6
VOLLINIE
 62
    18
 10
8.70357807781656
 20
-48.14006576214706
 30
0.0
 11
8.750371515867478
 21
-48.12245395897883
 31
0.0
  0
LINE
  5
230
  8
BLATTANSICHT_1_GEOMETRIEAN
  6
VOLLINIE
 62
    18
 10
8.537506086779969
 20
-48.21439613534237
 30
0.0
 11
8.59737279108614
 21
-48.1867972063822
 31
0.0
  0
LINE
  5
231
  8
BLATTANSICHT_1_GEOMETRIEAN
  6
VOLLINIE
 62
    18
 10
8.380951161411932
 20
-48.3007258460382
 30
0.0
 11
8.419584835341082
 21
-48.27908994889663
 31
0.0
  0
LINE
  5
232
  8
BLATTANSICHT_1_GEOMETRIEAN
  6
VOLLINIE
 62
    18
 10
8.197597189431542
 20
-48.42741734816713
 30
0.0
 11
8.23237058843754
 21
-48.40000421060628
 31
0.0
  0
LINE
  5
233
  8
BLATTANSICHT_1_GEOMETRIEAN
  6
VOLLINIE
 62
    18
 10
8.044293281102608
 20
-48.55635311991991
 30
0.0
 11
8.092701360460854
 21
-48.51160515138423
 31
0.0
  0
LINE
  5
234
  8
BLATTANSICHT_1_GEOMETRIEAN
  6
VOLLINIE
 62
    18
 10
7.926297792441225
 20
-48.67308241790937
 30
0.0
 11
7.960476053178291
 21
-48.63659066007678
 31
0.0
  0
LINE
  5
235
  8
BLATTANSICHT_1_GEOMETRIEAN
  6
VOLLINIE
 62
    18
 10
7.812149638698998
 20
-48.80572452120627
 30
0.0
 11
7.843868048993287
 21
-48.76707552610937
 31
0.0
  0
LINE
  5
236
  8
BLATTANSICHT_1_GEOMETRIEAN
  6
VOLLINIE
 62
    18
 10
7.607098763677949
 20
-49.11922028852285
 30
0.0
 11
7.630672080119759
 21
-49.07511771525231
 31
0.0
  0
LINE
  5
237
  8
BLATTANSICHT_1_GEOMETRIEAN
  6
VOLLINIE
 62
    18
 10
7.534567041807565
 20
-49.26740883827446
 30
0.0
 11
7.558446575340666
 21
-49.21470558480365
 31
0.0
  0
LINE
  5
238
  8
BLATTANSICHT_1_GEOMETRIEAN
  6
VOLLINIE
 62
    18
 10
7.46495071320109
 20
-49.44737879104425
 30
0.0
 11
7.50066196166952
 21
-49.34926294283771
 31
0.0
  0
LINE
  5
239
  8
BLATTANSICHT_1_GEOMETRIEAN
  6
VOLLINIE
 62
    18
 10
7.414114834347453
 20
-49.62189693711871
 30
0.0
 11
7.441716152180819
 21
-49.51888741719316
 31
0.0
  0
LINE
  5
23A
  8
BLATTANSICHT_1_GEOMETRIEAN
  6
VOLLINIE
 62
    18
 10
7.377555543996465
 20
-49.8037316655527
 30
0.0
 11
7.397180163816855
 21
-49.69243491655587
 31
0.0
  0
LINE
  5
23B
  8
BLATTANSICHT_1_GEOMETRIEAN
  6
VOLLINIE
 62
    18
 10
7.355520456928172
 20
-50.00283203398889
 30
0.0
 11
7.367243048532334
 21
-49.86884219952162
 31
0.0
  0
LINE
  5
23C
  8
BLATTANSICHT_1_GEOMETRIEAN
  6
VOLLINIE
 62
    18
 10
7.352046324062803
 20
-50.22567139834432
 30
0.0
 11
7.352046324056306
 21
-50.04697507753824
 31
0.0
  0
LINE
  5
23D
  8
BLATTANSICHT_1_GEOMETRIEAN
  6
VOLLINIE
 62
    18
 10
7.367243048763639
 20
-50.40380427804688
 30
0.0
 11
7.35552045609062
 21
-50.26981443147469
 31
0.0
  0
LINE
  5
23E
  8
BLATTANSICHT_1_GEOMETRIEAN
  6
VOLLINIE
 62
    18
 10
7.397180164645801
 20
-50.58021156310708
 30
0.0
 11
7.377555541930547
 21
-50.46891479774003
 31
0.0
  0
LINE
  5
23F
  8
BLATTANSICHT_1_GEOMETRIEAN
  6
VOLLINIE
 62
    18
 10
7.441716154153092
 20
-50.75375906514154
 30
0.0
 11
7.414114831180834
 21
-50.65074952606732
 31
0.0
  0
LINE
  5
240
  8
BLATTANSICHT_1_GEOMETRIEAN
  6
VOLLINIE
 62
    18
 10
7.500661965621443
 20
-50.92338354300022
 30
0.0
 11
7.464950708997163
 21
-50.82526767240786
 31
0.0
  0
LINE
  5
241
  8
BLATTANSICHT_1_GEOMETRIEAN
  6
VOLLINIE
 62
    18
 10
7.558446580647798
 20
-51.05794090189502
 30
0.0
 11
7.534567034965559
 21
-51.00523762162047
 31
0.0
  0
LINE
  5
242
  8
BLATTANSICHT_1_GEOMETRIEAN
  6
VOLLINIE
 62
    18
 10
7.630672085553777
 20
-51.19752876989816
 30
0.0
 11
7.607098748356676
 21
-51.15342615780452
 31
0.0
  0
LINE
  5
243
  8
BLATTANSICHT_1_GEOMETRIEAN
  6
VOLLINIE
 62
    18
 10
7.843868065822972
 20
-51.50557096938906
 30
0.0
 11
7.812149629030078
 21
-51.4669219420083
 31
0.0
  0
LINE
  5
244
  8
BLATTANSICHT_1_GEOMETRIEAN
  6
VOLLINIE
 62
    18
 10
7.960476065134463
 20
-51.63605582767727
 30
0.0
 11
7.926297773278922
 21
-51.59956403662402
 31
0.0
  0
LINE
  5
245
  8
BLATTANSICHT_1_GEOMETRIEAN
  6
VOLLINIE
 62
    18
 10
8.092701371344582
 20
-51.76104133366382
 30
0.0
 11
8.044293239322752
 21
-51.71629331645118
 31
0.0
  0
LINE
  5
246
  8
BLATTANSICHT_1_GEOMETRIEAN
  6
VOLLINIE
 62
    18
 10
8.232370599494345
 20
-51.87264227309758
 30
0.0
 11
8.197597092685587
 21
-51.8452290505546
 31
0.0
  0
LINE
  5
247
  8
BLATTANSICHT_1_GEOMETRIEAN
  6
VOLLINIE
 62
    18
 10
8.419584952604867
 20
-51.99355659176798
 30
0.0
 11
8.380951148640722
 21
-51.97192062180522
 31
0.0
  0
LINE
  5
248
  8
BLATTANSICHT_1_GEOMETRIEAN
  6
VOLLINIE
 62
    18
 10
8.597372855150489
 20
-52.08584929814418
 30
0.0
 11
8.537506071093881
 21
-52.05825033242093
 31
0.0
  0
LINE
  5
249
  8
BLATTANSICHT_1_GEOMETRIEAN
  6
VOLLINIE
 62
    18
 10
8.750371552265463
 20
-52.15019252971231
 30
0.0
 11
8.703578056287492
 21
-52.13258070474335
 31
0.0
  0
LINE
  5
24A
  8
BLATTANSICHT_1_GEOMETRIEAN
  6
VOLLINIE
 62
    18
 10
8.916599466463804
 20
-52.2048917297707
 30
0.0
 11
8.868754296639576
 21
-52.19037805601465
 31
0.0
  0
LINE
  5
24B
  8
BLATTANSICHT_1_GEOMETRIEAN
  6
VOLLINIE
 62
    18
 10
-3.999999999782506
 20
-57.63632323758056
 30
0.0
 11
-3.999999999782506
 21
-42.63632323758056
 31
0.0
  0
LINE
  5
24C
  8
BLATTANSICHT_1_GEOMETRIEAN
  6
VOLLINIE
 62
    18
 10
-5.499999999782503
 20
-57.63632323758056
 30
0.0
 11
-3.999999999782506
 21
-57.63632323758056
 31
0.0
  0
LINE
  5
24D
  8
BLATTANSICHT_1_GEOMETRIEAN
  6
VOLLINIE
 62
    18
 10
-3.999999999782506
 20
-42.63632323758056
 30
0.0
 11
-5.499999999782503
 21
-42.63632323758056
 31
0.0
  0
LINE
  5
24E
  8
BLATTANSICHT_1_GEOMETRIEAN
  6
VOLLINIE
 62
    18
 10
-5.499999999782503
 20
-42.63632323758056
 30
0.0
 11
-5.499999999782503
 21
-57.63632323758056
 31
0.0
  0
LINE
  5
24F
  8
BLATTANSICHT_1_GEOMETRIEAN
  6
VOLLINIE
 62
    18
 10
-0.0171102770956082
 20
-57.63632323758056
 30
0.0
 11
-0.0042821533473352
 21
-57.63632323758056
 31
0.0
  0
LINE
  5
250
  8
BLATTANSICHT_1_GEOMETRIEAN
  6
VOLLINIE
 62
    18
 10
-0.03842943903216
 20
-57.63632323758056
 30
0.0
 11
-0.0171102770956082
 21
-57.63632323758056
 31
0.0
  0
LINE
  5
251
  8
BLATTANSICHT_1_GEOMETRIEAN
  6
VOLLINIE
 62
    18
 10
-0.0042821533473352
 20
-57.63632323758056
 30
0.0
 11
0.0000000002174984
 21
-57.63632323758056
 31
0.0
  0
LINE
  5
252
  8
BLATTANSICHT_1_GEOMETRIEAN
  6
VOLLINIE
 62
    18
 10
-0.0681483466546973
 20
-57.63632323758056
 30
0.0
 11
-0.03842943903216
 21
-57.63632323758056
 31
0.0
  0
LINE
  5
253
  8
BLATTANSICHT_1_GEOMETRIEAN
  6
VOLLINIE
 62
    18
 10
-0.1061397393345005
 20
-57.63632323758056
 30
0.0
 11
-0.0681483466546973
 21
-57.63632323758056
 31
0.0
  0
LINE
  5
254
  8
BLATTANSICHT_1_GEOMETRIEAN
  6
VOLLINIE
 62
    18
 10
-0.1522409321015694
 20
-57.63632323758056
 30
0.0
 11
-0.1061397393345005
 21
-57.63632323758056
 31
0.0
  0
LINE
  5
255
  8
BLATTANSICHT_1_GEOMETRIEAN
  6
VOLLINIE
 62
    18
 10
-0.2179869496779138
 20
-57.63632323758056
 30
0.0
 11
-0.1522409321015694
 21
-57.63632323758056
 31
0.0
  0
LINE
  5
256
  8
BLATTANSICHT_1_GEOMETRIEAN
  6
VOLLINIE
 62
    18
 10
-0.2947196707267307
 20
-57.63632323758056
 30
0.0
 11
-0.2179869496779138
 21
-57.63632323758056
 31
0.0
  0
LINE
  5
257
  8
BLATTANSICHT_1_GEOMETRIEAN
  6
VOLLINIE
 62
    18
 10
-0.3819660124876402
 20
-57.63632323758056
 30
0.0
 11
-0.2947196707267307
 21
-57.63632323758056
 31
0.0
  0
LINE
  5
258
  8
BLATTANSICHT_1_GEOMETRIEAN
  6
VOLLINIE
 62
    18
 10
-0.4791880722298237
 20
-57.63632323758056
 30
0.0
 11
-0.3819660124876402
 21
-57.63632323758056
 31
0.0
  0
LINE
  5
259
  8
BLATTANSICHT_1_GEOMETRIEAN
  6
VOLLINIE
 62
    18
 10
-0.5857864436014141
 20
-57.63632323758056
 30
0.0
 11
-0.4791880722298237
 21
-57.63632323758056
 31
0.0
  0
LINE
  5
25A
  8
BLATTANSICHT_1_GEOMETRIEAN
  6
VOLLINIE
 62
    18
 10
-0.6813083714085235
 20
-57.63632323758056
 30
0.0
 11
-0.5857864436014141
 21
-57.63632323758056
 31
0.0
  0
LINE
  5
25B
  8
BLATTANSICHT_1_GEOMETRIEAN
  6
VOLLINIE
 62
    18
 10
-0.7824771386718041
 20
-57.63632323758056
 30
0.0
 11
-0.6813083714085235
 21
-57.63632323758056
 31
0.0
  0
LINE
  5
25C
  8
BLATTANSICHT_1_GEOMETRIEAN
  6
VOLLINIE
 62
    18
 10
-0.8888595252399675
 20
-57.63632323758056
 30
0.0
 11
-0.7824771386718041
 21
-57.63632323758056
 31
0.0
  0
LINE
  5
25D
  8
BLATTANSICHT_1_GEOMETRIEAN
  6
VOLLINIE
 62
    18
 10
-0.9999999911197658
 20
-57.63632323758056
 30
0.0
 11
-0.8888595252399675
 21
-57.63632323758056
 31
0.0
  0
LINE
  5
25E
  8
BLATTANSICHT_1_GEOMETRIEAN
  6
VOLLINIE
 62
    18
 10
-1.115422610574098
 20
-57.63632323758056
 30
0.0
 11
-0.9999999911197658
 21
-57.63632323758056
 31
0.0
  0
LINE
  5
25F
  8
BLATTANSICHT_1_GEOMETRIEAN
  6
VOLLINIE
 62
    18
 10
-1.234633126224761
 20
-57.63632323758056
 30
0.0
 11
-1.115422610574098
 21
-57.63632323758056
 31
0.0
  0
LINE
  5
260
  8
BLATTANSICHT_1_GEOMETRIEAN
  6
VOLLINIE
 62
    18
 10
-1.357121061311702
 20
-57.63632323758056
 30
0.0
 11
-1.234633126224761
 21
-57.63632323758056
 31
0.0
  0
LINE
  5
261
  8
BLATTANSICHT_1_GEOMETRIEAN
  6
VOLLINIE
 62
    18
 10
-1.482361902762281
 20
-57.63632323758056
 30
0.0
 11
-1.357121061311702
 21
-57.63632323758056
 31
0.0
  0
LINE
  5
262
  8
BLATTANSICHT_1_GEOMETRIEAN
  6
VOLLINIE
 62
    18
 10
-1.609819350055852
 20
-57.63632323758056
 30
0.0
 11
-1.482361902762281
 21
-57.63632323758056
 31
0.0
  0
LINE
  5
263
  8
BLATTANSICHT_1_GEOMETRIEAN
  6
VOLLINIE
 62
    18
 10
-1.764925201407406
 20
-57.63632323758056
 30
0.0
 11
-1.609819350055852
 21
-57.63632323758056
 31
0.0
  0
LINE
  5
264
  8
BLATTANSICHT_1_GEOMETRIEAN
  6
VOLLINIE
 62
    18
 10
-1.921480367104073
 20
-57.63632323758056
 30
0.0
 11
-1.764925201407406
 21
-57.63632323758056
 31
0.0
  0
LINE
  5
265
  8
BLATTANSICHT_1_GEOMETRIEAN
  6
VOLLINIE
 62
    18
 10
-2.078519632460934
 20
-57.63632323758056
 30
0.0
 11
-1.921480367104073
 21
-57.63632323758056
 31
0.0
  0
LINE
  5
266
  8
BLATTANSICHT_1_GEOMETRIEAN
  6
VOLLINIE
 62
    18
 10
-2.235074798157601
 20
-57.63632323758056
 30
0.0
 11
-2.078519632460934
 21
-57.63632323758056
 31
0.0
  0
LINE
  5
267
  8
BLATTANSICHT_1_GEOMETRIEAN
  6
VOLLINIE
 62
    18
 10
-2.390180649509155
 20
-57.63632323758056
 30
0.0
 11
-2.235074798157601
 21
-57.63632323758056
 31
0.0
  0
LINE
  5
268
  8
BLATTANSICHT_1_GEOMETRIEAN
  6
VOLLINIE
 62
    18
 10
-2.517638096802726
 20
-57.63632323758056
 30
0.0
 11
-2.390180649509155
 21
-57.63632323758056
 31
0.0
  0
LINE
  5
269
  8
BLATTANSICHT_1_GEOMETRIEAN
  6
VOLLINIE
 62
    18
 10
-2.642878938253305
 20
-57.63632323758056
 30
0.0
 11
-2.517638096802726
 21
-57.63632323758056
 31
0.0
  0
LINE
  5
26A
  8
BLATTANSICHT_1_GEOMETRIEAN
  6
VOLLINIE
 62
    18
 10
-2.765366873340247
 20
-57.63632323758056
 30
0.0
 11
-2.642878938253305
 21
-57.63632323758056
 31
0.0
  0
LINE
  5
26B
  8
BLATTANSICHT_1_GEOMETRIEAN
  6
VOLLINIE
 62
    18
 10
-2.884577388990914
 20
-57.63632323758056
 30
0.0
 11
-2.765366873340247
 21
-57.63632323758056
 31
0.0
  0
LINE
  5
26C
  8
BLATTANSICHT_1_GEOMETRIEAN
  6
VOLLINIE
 62
    18
 10
-3.000000008445241
 20
-57.63632323758056
 30
0.0
 11
-2.884577388990914
 21
-57.63632323758056
 31
0.0
  0
LINE
  5
26D
  8
BLATTANSICHT_1_GEOMETRIEAN
  6
VOLLINIE
 62
    18
 10
-3.111140474325034
 20
-57.63632323758056
 30
0.0
 11
-3.000000008445241
 21
-57.63632323758056
 31
0.0
  0
LINE
  5
26E
  8
BLATTANSICHT_1_GEOMETRIEAN
  6
VOLLINIE
 62
    18
 10
-3.217522860893208
 20
-57.63632323758056
 30
0.0
 11
-3.111140474325034
 21
-57.63632323758056
 31
0.0
  0
LINE
  5
26F
  8
BLATTANSICHT_1_GEOMETRIEAN
  6
VOLLINIE
 62
    18
 10
-3.318691628156484
 20
-57.63632323758056
 30
0.0
 11
-3.217522860893208
 21
-57.63632323758056
 31
0.0
  0
LINE
  5
270
  8
BLATTANSICHT_1_GEOMETRIEAN
  6
VOLLINIE
 62
    18
 10
-3.414213555963599
 20
-57.63632323758056
 30
0.0
 11
-3.318691628156484
 21
-57.63632323758056
 31
0.0
  0
LINE
  5
271
  8
BLATTANSICHT_1_GEOMETRIEAN
  6
VOLLINIE
 62
    18
 10
-3.520811927335183
 20
-57.63632323758056
 30
0.0
 11
-3.414213555963599
 21
-57.63632323758056
 31
0.0
  0
LINE
  5
272
  8
BLATTANSICHT_1_GEOMETRIEAN
  6
VOLLINIE
 62
    18
 10
-3.618033987077373
 20
-57.63632323758056
 30
0.0
 11
-3.520811927335183
 21
-57.63632323758056
 31
0.0
  0
LINE
  5
273
  8
BLATTANSICHT_1_GEOMETRIEAN
  6
VOLLINIE
 62
    18
 10
-3.705280328838277
 20
-57.63632323758056
 30
0.0
 11
-3.618033987077373
 21
-57.63632323758056
 31
0.0
  0
LINE
  5
274
  8
BLATTANSICHT_1_GEOMETRIEAN
  6
VOLLINIE
 62
    18
 10
-3.782013049887094
 20
-57.63632323758056
 30
0.0
 11
-3.705280328838277
 21
-57.63632323758056
 31
0.0
  0
LINE
  5
275
  8
BLATTANSICHT_1_GEOMETRIEAN
  6
VOLLINIE
 62
    18
 10
-3.847759067463432
 20
-57.63632323758056
 30
0.0
 11
-3.782013049887094
 21
-57.63632323758056
 31
0.0
  0
LINE
  5
276
  8
BLATTANSICHT_1_GEOMETRIEAN
  6
VOLLINIE
 62
    18
 10
-3.893860260230507
 20
-57.63632323758056
 30
0.0
 11
-3.847759067463432
 21
-57.63632323758056
 31
0.0
  0
LINE
  5
277
  8
BLATTANSICHT_1_GEOMETRIEAN
  6
VOLLINIE
 62
    18
 10
-3.93185165291031
 20
-57.63632323758056
 30
0.0
 11
-3.893860260230507
 21
-57.63632323758056
 31
0.0
  0
LINE
  5
278
  8
BLATTANSICHT_1_GEOMETRIEAN
  6
VOLLINIE
 62
    18
 10
-3.961570560532847
 20
-57.63632323758056
 30
0.0
 11
-3.93185165291031
 21
-57.63632323758056
 31
0.0
  0
LINE
  5
279
  8
BLATTANSICHT_1_GEOMETRIEAN
  6
VOLLINIE
 62
    18
 10
-3.982889722489466
 20
-57.63632323758056
 30
0.0
 11
-3.961570560532847
 21
-57.63632323758056
 31
0.0
  0
LINE
  5
27A
  8
BLATTANSICHT_1_GEOMETRIEAN
  6
VOLLINIE
 62
    18
 10
-3.995717846237778
 20
-57.63632323758056
 30
0.0
 11
-3.982889722489466
 21
-57.63632323758056
 31
0.0
  0
LINE
  5
27B
  8
BLATTANSICHT_1_GEOMETRIEAN
  6
VOLLINIE
 62
    18
 10
-3.999999999782506
 20
-57.63632323758056
 30
0.0
 11
-3.995717846237778
 21
-57.63632323758056
 31
0.0
  0
LINE
  5
27C
  8
BLATTANSICHT_1_GEOMETRIEAN
  6
VOLLINIE
 62
    18
 10
-3.99571784625322
 20
-42.63632323808977
 30
0.0
 11
-3.999999999782506
 21
-42.63632323758056
 31
0.0
  0
LINE
  5
27D
  8
BLATTANSICHT_1_GEOMETRIEAN
  6
VOLLINIE
 62
    18
 10
-3.982889722520085
 20
-42.63632323808978
 30
0.0
 11
-3.99571784625322
 21
-42.63632323808977
 31
0.0
  0
LINE
  5
27E
  8
BLATTANSICHT_1_GEOMETRIEAN
  6
VOLLINIE
 62
    18
 10
-3.961570560578316
 20
-42.63632323808978
 30
0.0
 11
-3.982889722520085
 21
-42.63632323808978
 31
0.0
  0
LINE
  5
27F
  8
BLATTANSICHT_1_GEOMETRIEAN
  6
VOLLINIE
 62
    18
 10
-3.931851652969467
 20
-42.63632323808978
 30
0.0
 11
-3.961570560578316
 21
-42.63632323808978
 31
0.0
  0
LINE
  5
280
  8
BLATTANSICHT_1_GEOMETRIEAN
  6
VOLLINIE
 62
    18
 10
-3.893860260302523
 20
-42.63632323808978
 30
0.0
 11
-3.931851652969467
 21
-42.63632323808978
 31
0.0
  0
LINE
  5
281
  8
BLATTANSICHT_1_GEOMETRIEAN
  6
VOLLINIE
 62
    18
 10
-3.84775906754745
 20
-42.63632323808978
 30
0.0
 11
-3.893860260302523
 21
-42.63632323808978
 31
0.0
  0
LINE
  5
282
  8
BLATTANSICHT_1_GEOMETRIEAN
  6
VOLLINIE
 62
    18
 10
-3.782013049982092
 20
-42.63632323808978
 30
0.0
 11
-3.84775906754745
 21
-42.63632323808978
 31
0.0
  0
LINE
  5
283
  8
BLATTANSICHT_1_GEOMETRIEAN
  6
VOLLINIE
 62
    18
 10
-3.705280328942221
 20
-42.63632323808978
 30
0.0
 11
-3.782013049982092
 21
-42.63632323808978
 31
0.0
  0
LINE
  5
284
  8
BLATTANSICHT_1_GEOMETRIEAN
  6
VOLLINIE
 62
    18
 10
-3.618033987188248
 20
-42.63632323808978
 30
0.0
 11
-3.705280328942221
 21
-42.63632323808978
 31
0.0
  0
LINE
  5
285
  8
BLATTANSICHT_1_GEOMETRIEAN
  6
VOLLINIE
 62
    18
 10
-3.520811927451005
 20
-42.63632323808978
 30
0.0
 11
-3.618033987188248
 21
-42.63632323808978
 31
0.0
  0
LINE
  5
286
  8
BLATTANSICHT_1_GEOMETRIEAN
  6
VOLLINIE
 62
    18
 10
-3.414213556082415
 20
-42.63632323808978
 30
0.0
 11
-3.520811927451005
 21
-42.63632323808978
 31
0.0
  0
LINE
  5
287
  8
BLATTANSICHT_1_GEOMETRIEAN
  6
VOLLINIE
 62
    18
 10
-3.318691628273794
 20
-42.63632323808978
 30
0.0
 11
-3.414213556082415
 21
-42.63632323808978
 31
0.0
  0
LINE
  5
288
  8
BLATTANSICHT_1_GEOMETRIEAN
  6
VOLLINIE
 62
    18
 10
-3.217522861007468
 20
-42.63632323808978
 30
0.0
 11
-3.318691628273794
 21
-42.63632323808978
 31
0.0
  0
LINE
  5
289
  8
BLATTANSICHT_1_GEOMETRIEAN
  6
VOLLINIE
 62
    18
 10
-3.111140474434804
 20
-42.63632323808978
 30
0.0
 11
-3.217522861007468
 21
-42.63632323808978
 31
0.0
  0
LINE
  5
28A
  8
BLATTANSICHT_1_GEOMETRIEAN
  6
VOLLINIE
 62
    18
 10
-3.000000008547719
 20
-42.63632323808978
 30
0.0
 11
-3.111140474434804
 21
-42.63632323808978
 31
0.0
  0
LINE
  5
28B
  8
BLATTANSICHT_1_GEOMETRIEAN
  6
VOLLINIE
 62
    18
 10
-2.884577389084757
 20
-42.63632323808978
 30
0.0
 11
-3.000000008547719
 21
-42.63632323808978
 31
0.0
  0
LINE
  5
28C
  8
BLATTANSICHT_1_GEOMETRIEAN
  6
VOLLINIE
 62
    18
 10
-2.765366873424259
 20
-42.63632323808978
 30
0.0
 11
-2.884577389084757
 21
-42.63632323808978
 31
0.0
  0
LINE
  5
28D
  8
BLATTANSICHT_1_GEOMETRIEAN
  6
VOLLINIE
 62
    18
 10
-2.64287893832535
 20
-42.63632323808978
 30
0.0
 11
-2.765366873424259
 21
-42.63632323808978
 31
0.0
  0
LINE
  5
28E
  8
BLATTANSICHT_1_GEOMETRIEAN
  6
VOLLINIE
 62
    18
 10
-2.517638096861855
 20
-42.63632323808978
 30
0.0
 11
-2.64287893832535
 21
-42.63632323808978
 31
0.0
  0
LINE
  5
28F
  8
BLATTANSICHT_1_GEOMETRIEAN
  6
VOLLINIE
 62
    18
 10
-2.390180649554613
 20
-42.63632323808978
 30
0.0
 11
-2.517638096861855
 21
-42.63632323808978
 31
0.0
  0
LINE
  5
290
  8
BLATTANSICHT_1_GEOMETRIEAN
  6
VOLLINIE
 62
    18
 10
-2.235074798185226
 20
-42.63632323808978
 30
0.0
 11
-2.390180649554613
 21
-42.63632323808978
 31
0.0
  0
LINE
  5
291
  8
BLATTANSICHT_1_GEOMETRIEAN
  6
VOLLINIE
 62
    18
 10
-2.078519632470195
 20
-42.63632323808978
 30
0.0
 11
-2.235074798185226
 21
-42.63632323808978
 31
0.0
  0
LINE
  5
292
  8
BLATTANSICHT_1_GEOMETRIEAN
  6
VOLLINIE
 62
    18
 10
-1.921480367094801
 20
-42.63632323808978
 30
0.0
 11
-2.078519632470195
 21
-42.63632323808978
 31
0.0
  0
LINE
  5
293
  8
BLATTANSICHT_1_GEOMETRIEAN
  6
VOLLINIE
 62
    18
 10
-1.764925201379782
 20
-42.63632323808978
 30
0.0
 11
-1.921480367094801
 21
-42.63632323808978
 31
0.0
  0
LINE
  5
294
  8
BLATTANSICHT_1_GEOMETRIEAN
  6
VOLLINIE
 62
    18
 10
-1.609819350010383
 20
-42.63632323808978
 30
0.0
 11
-1.764925201379782
 21
-42.63632323808978
 31
0.0
  0
LINE
  5
295
  8
BLATTANSICHT_1_GEOMETRIEAN
  6
VOLLINIE
 62
    18
 10
-1.482361902703141
 20
-42.63632323808978
 30
0.0
 11
-1.609819350010383
 21
-42.63632323808978
 31
0.0
  0
LINE
  5
296
  8
BLATTANSICHT_1_GEOMETRIEAN
  6
VOLLINIE
 62
    18
 10
-1.357121061239657
 20
-42.63632323808978
 30
0.0
 11
-1.482361902703141
 21
-42.63632323808978
 31
0.0
  0
LINE
  5
297
  8
BLATTANSICHT_1_GEOMETRIEAN
  6
VOLLINIE
 62
    18
 10
-1.234633126140748
 20
-42.63632323808978
 30
0.0
 11
-1.357121061239657
 21
-42.63632323808978
 31
0.0
  0
LINE
  5
298
  8
BLATTANSICHT_1_GEOMETRIEAN
  6
VOLLINIE
 62
    18
 10
-1.11542261048025
 20
-42.63632323808978
 30
0.0
 11
-1.234633126140748
 21
-42.63632323808978
 31
0.0
  0
LINE
  5
299
  8
BLATTANSICHT_1_GEOMETRIEAN
  6
VOLLINIE
 62
    18
 10
-0.9999999910172882
 20
-42.63632323808978
 30
0.0
 11
-1.11542261048025
 21
-42.63632323808978
 31
0.0
  0
LINE
  5
29A
  8
BLATTANSICHT_1_GEOMETRIEAN
  6
VOLLINIE
 62
    18
 10
-0.888859525130203
 20
-42.63632323808978
 30
0.0
 11
-0.9999999910172882
 21
-42.63632323808978
 31
0.0
  0
LINE
  5
29B
  8
BLATTANSICHT_1_GEOMETRIEAN
  6
VOLLINIE
 62
    18
 10
-0.7824771385575391
 20
-42.63632323808978
 30
0.0
 11
-0.888859525130203
 21
-42.63632323808978
 31
0.0
  0
LINE
  5
29C
  8
BLATTANSICHT_1_GEOMETRIEAN
  6
VOLLINIE
 62
    18
 10
-0.6813083712912129
 20
-42.63632323808978
 30
0.0
 11
-0.7824771385575391
 21
-42.63632323808978
 31
0.0
  0
LINE
  5
29D
  8
BLATTANSICHT_1_GEOMETRIEAN
  6
VOLLINIE
 62
    18
 10
-0.585786443482592
 20
-42.63632323808978
 30
0.0
 11
-0.6813083712912129
 21
-42.63632323808978
 31
0.0
  0
LINE
  5
29E
  8
BLATTANSICHT_1_GEOMETRIEAN
  6
VOLLINIE
 62
    18
 10
-0.4791880721140021
 20
-42.63632323808978
 30
0.0
 11
-0.585786443482592
 21
-42.63632323808978
 31
0.0
  0
LINE
  5
29F
  8
BLATTANSICHT_1_GEOMETRIEAN
  6
VOLLINIE
 62
    18
 10
-0.3819660123767591
 20
-42.63632323808978
 30
0.0
 11
-0.4791880721140021
 21
-42.63632323808978
 31
0.0
  0
LINE
  5
2A0
  8
BLATTANSICHT_1_GEOMETRIEAN
  6
VOLLINIE
 62
    18
 10
-0.2947196706227867
 20
-42.63632323808978
 30
0.0
 11
-0.3819660123767591
 21
-42.63632323808978
 31
0.0
  0
LINE
  5
2A1
  8
BLATTANSICHT_1_GEOMETRIEAN
  6
VOLLINIE
 62
    18
 10
-0.2179869495829148
 20
-42.63632323808978
 30
0.0
 11
-0.2947196706227867
 21
-42.63632323808978
 31
0.0
  0
LINE
  5
2A2
  8
BLATTANSICHT_1_GEOMETRIEAN
  6
VOLLINIE
 62
    18
 10
-0.1522409320175569
 20
-42.63632323808978
 30
0.0
 11
-0.2179869495829148
 21
-42.63632323808978
 31
0.0
  0
LINE
  5
2A3
  8
BLATTANSICHT_1_GEOMETRIEAN
  6
VOLLINIE
 62
    18
 10
-0.1061397392624785
 20
-42.63632323808978
 30
0.0
 11
-0.1522409320175569
 21
-42.63632323808978
 31
0.0
  0
LINE
  5
2A4
  8
BLATTANSICHT_1_GEOMETRIEAN
  6
VOLLINIE
 62
    18
 10
-0.0681483465955344
 20
-42.63632323808978
 30
0.0
 11
-0.1061397392624785
 21
-42.63632323808978
 31
0.0
  0
LINE
  5
2A5
  8
BLATTANSICHT_1_GEOMETRIEAN
  6
VOLLINIE
 62
    18
 10
-0.0384294389866908
 20
-42.63632323808978
 30
0.0
 11
-0.0681483465955344
 21
-42.63632323808978
 31
0.0
  0
LINE
  5
2A6
  8
BLATTANSICHT_1_GEOMETRIEAN
  6
VOLLINIE
 62
    18
 10
-0.0171102770649834
 20
-42.63632323808978
 30
0.0
 11
-0.0384294389866908
 21
-42.63632323808978
 31
0.0
  0
LINE
  5
2A7
  8
BLATTANSICHT_1_GEOMETRIEAN
  6
VOLLINIE
 62
    18
 10
-0.004282153331893
 20
-42.63632323808977
 30
0.0
 11
-0.0171102770649834
 21
-42.63632323808978
 31
0.0
  0
LINE
  5
2A8
  8
BLATTANSICHT_1_GEOMETRIEAN
  6
VOLLINIE
 62
    18
 10
0.0000000002174984
 20
-42.63632323758056
 30
0.0
 11
-0.004282153331893
 21
-42.63632323808977
 31
0.0
  0
LINE
  5
2A9
  8
BLATTANSICHT_1_GEOMETRIEAN
  6
VOLLINIE
 62
    18
 10
10.13124567222349
 20
-52.19037806647867
 30
0.0
 11
10.08340056119701
 21
-52.20489172237345
 31
0.0
  0
LINE
  5
2AA
  8
BLATTANSICHT_1_GEOMETRIEAN
  6
VOLLINIE
 62
    18
 10
10.29642192675747
 20
-52.13258071224119
 30
0.0
 11
10.24962849026728
 21
-52.15019251479645
 31
0.0
  0
LINE
  5
2AB
  8
BLATTANSICHT_1_GEOMETRIEAN
  6
VOLLINIE
 62
    18
 10
10.46249391690241
 20
-52.05825033917554
 30
0.0
 11
10.40262721576983
 21
-52.08584926664037
 31
0.0
  0
LINE
  5
2AC
  8
BLATTANSICHT_1_GEOMETRIEAN
  6
VOLLINIE
 62
    18
 10
10.6190488420188
 20
-51.97192062836888
 30
0.0
 11
10.58041518102706
 21
-51.99355651824469
 31
0.0
  0
LINE
  5
2AD
  8
BLATTANSICHT_1_GEOMETRIEAN
  6
VOLLINIE
 62
    18
 10
10.80240282530879
 20
-51.84522911674377
 30
0.0
 11
10.76762941463277
 21
-51.87264226348645
 31
0.0
  0
LINE
  5
2AE
  8
BLATTANSICHT_1_GEOMETRIEAN
  6
VOLLINIE
 62
    18
 10
10.95570672438955
 20
-51.71629335169873
 30
0.0
 11
10.90729864242514
 21
-51.76104132261848
 31
0.0
  0
LINE
  5
2AF
  8
BLATTANSICHT_1_GEOMETRIEAN
  6
VOLLINIE
 62
    18
 10
11.07370221164422
 20
-51.59956405458809
 30
0.0
 11
11.03952394987845
 21
-51.63605581350159
 31
0.0
  0
LINE
  5
2B0
  8
BLATTANSICHT_1_GEOMETRIEAN
  6
VOLLINIE
 62
    18
 10
11.187850364199
 20
-51.46692195230012
 30
0.0
 11
11.15613195457609
 21
-51.50557094656333
 31
0.0
  0
LINE
  5
2B1
  8
BLATTANSICHT_1_GEOMETRIEAN
  6
VOLLINIE
 62
    18
 10
11.39290123955557
 20
-51.15342618317666
 30
0.0
 11
11.36932792194108
 21
-51.19752875863325
 31
0.0
  0
LINE
  5
2B2
  8
BLATTANSICHT_1_GEOMETRIEAN
  6
VOLLINIE
 62
    18
 10
11.46543296034161
 20
-51.00523763510729
 30
0.0
 11
11.44155342655067
 21
-51.05794088914263
 31
0.0
  0
LINE
  5
2B3
  8
BLATTANSICHT_1_GEOMETRIEAN
  6
VOLLINIE
 62
    18
 10
11.53504928834162
 20
-50.82526768343691
 30
0.0
 11
11.49933803977621
 21
-50.92338353191417
 31
0.0
  0
LINE
  5
2B4
  8
BLATTANSICHT_1_GEOMETRIEAN
  6
VOLLINIE
 62
    18
 10
11.58588516703405
 20
-50.6507495375301
 30
0.0
 11
11.5582838491835
 21
-50.75375905754663
 31
0.0
  0
LINE
  5
2B5
  8
BLATTANSICHT_1_GEOMETRIEAN
  6
VOLLINIE
 62
    18
 10
11.62244445726153
 20
-50.46891480925499
 30
0.0
 11
11.6028198374554
 21
-50.5802115582467
 31
0.0
  0
LINE
  5
2B6
  8
BLATTANSICHT_1_GEOMETRIEAN
  6
VOLLINIE
 62
    18
 10
11.64447954422489
 20
-50.26981444109442
 30
0.0
 11
11.63275695265599
 21
-50.40380427541739
 31
0.0
  0
LINE
  5
2B7
  8
BLATTANSICHT_1_GEOMETRIEAN
  6
VOLLINIE
 62
    18
 10
11.64795367702846
 20
-50.04697507692936
 30
0.0
 11
11.64795367707404
 21
-50.22567139756153
 31
0.0
  0
LINE
  5
2B8
  8
BLATTANSICHT_1_GEOMETRIEAN
  6
VOLLINIE
 62
    18
 10
11.63275695230535
 20
-49.86884219739513
 30
0.0
 11
11.64447954501334
 21
-50.0028320439504
 31
0.0
  0
LINE
  5
2B9
  8
BLATTANSICHT_1_GEOMETRIEAN
  6
VOLLINIE
 62
    18
 10
11.60281983642732
 20
-49.69243491248287
 30
0.0
 11
11.62244445918247
 21
-49.80373167786716
 31
0.0
  0
LINE
  5
2BA
  8
BLATTANSICHT_1_GEOMETRIEAN
  6
VOLLINIE
 62
    18
 10
11.55828384693707
 20
-49.51888741054359
 30
0.0
 11
11.5858851699783
 21
-49.62189694972181
 31
0.0
  0
LINE
  5
2BB
  8
BLATTANSICHT_1_GEOMETRIEAN
  6
VOLLINIE
 62
    18
 10
11.49933803547842
 20
-49.34926293270949
 30
0.0
 11
11.5350492922477
 21
-49.44737880357091
 31
0.0
  0
LINE
  5
2BC
  8
BLATTANSICHT_1_GEOMETRIEAN
  6
VOLLINIE
 62
    18
 10
11.44155342085592
 20
-49.21470557468228
 30
0.0
 11
11.46543296681075
 21
-49.26740885549352
 31
0.0
  0
LINE
  5
2BD
  8
BLATTANSICHT_1_GEOMETRIEAN
  6
VOLLINIE
 62
    18
 10
11.36932791607519
 20
-49.07511770679594
 30
0.0
 11
11.39290125445454
 21
-49.11922032104941
 31
0.0
  0
LINE
  5
2BE
  8
BLATTANSICHT_1_GEOMETRIEAN
  6
VOLLINIE
 62
    18
 10
11.15613193725917
 20
-48.76707550868841
 30
0.0
 11
11.18785037338107
 21
-48.80572453520727
 31
0.0
  0
LINE
  5
2BF
  8
BLATTANSICHT_1_GEOMETRIEAN
  6
VOLLINIE
 62
    18
 10
11.03952393742941
 20
-48.63659064957888
 30
0.0
 11
11.07370223031911
 21
-48.67308244169365
 31
0.0
  0
LINE
  5
2C0
  8
BLATTANSICHT_1_GEOMETRIEAN
  6
VOLLINIE
 62
    18
 10
10.90729863105858
 20
-48.51160514325605
 30
0.0
 11
10.95570676568591
 21
-48.55635316282348
 31
0.0
  0
LINE
  5
2C1
  8
BLATTANSICHT_1_GEOMETRIEAN
  6
VOLLINIE
 62
    18
 10
10.76762940311536
 20
-48.40000420381461
 30
0.0
 11
10.80240292162877
 21
-48.42741743555045
 31
0.0
  0
LINE
  5
2C2
  8
BLATTANSICHT_1_GEOMETRIEAN
  6
VOLLINIE
 62
    18
 10
10.58041506343089
 20
-48.27908989223439
 30
0.0
 11
10.61904885435847
 21
-48.30072585486431
 31
0.0
  0
LINE
  5
2C3
  8
BLATTANSICHT_1_GEOMETRIEAN
  6
VOLLINIE
 62
    18
 10
10.40262715136351
 20
-48.18679718001386
 30
0.0
 11
10.46249393219833
 21
-48.21439614420529
 31
0.0
  0
LINE
  5
2C4
  8
BLATTANSICHT_1_GEOMETRIEAN
  6
VOLLINIE
 62
    18
 10
10.24962845356828
 20
-48.12245394773986
 30
0.0
 11
10.29642194794752
 21
-48.14006577207263
 31
0.0
  0
LINE
  5
2C5
  8
BLATTANSICHT_1_GEOMETRIEAN
  6
VOLLINIE
 62
    18
 10
10.08340053799924
 20
-48.06775474694386
 30
0.0
 11
10.13124570975376
 21
-48.08226842125195
 31
0.0
  0
LINE
  5
2C6
  8
BLATTANSICHT_1_GEOMETRIEAN
  6
VOLLINIE
 62
    18
 10
24.1761735194923
 20
0.0
 30
0.0
 11
23.66677675510199
 21
0.0
 31
0.0
  0
LINE
  5
2C7
  8
BLATTANSICHT_1_GEOMETRIEAN
  6
VOLLINIE
 62
    18
 10
25.09231624087813
 20
0.0
 30
0.0
 11
24.6524769501615
 21
0.0
 31
0.0
  0
LINE
  5
2C8
  8
BLATTANSICHT_1_GEOMETRIEAN
  6
VOLLINIE
 62
    18
 10
25.49257864381067
 20
0.0
 30
0.0
 11
25.09231624087813
 21
0.0
 31
0.0
  0
LINE
  5
2C9
  8
BLATTANSICHT_1_GEOMETRIEAN
  6
VOLLINIE
 62
    18
 10
24.6524769501615
 20
0.0
 30
0.0
 11
24.1761735194923
 21
0.0
 31
0.0
  0
LINE
  5
2CA
  8
BLATTANSICHT_1_GEOMETRIEAN
  6
VOLLINIE
 62
    18
 10
25.85043149722781
 20
0.0
 30
0.0
 11
25.49257864381067
 21
0.0
 31
0.0
  0
LINE
  5
2CB
  8
BLATTANSICHT_1_GEOMETRIEAN
  6
VOLLINIE
 62
    18
 10
26.16334227227875
 20
0.0
 30
0.0
 11
25.85043149722781
 21
0.0
 31
0.0
  0
LINE
  5
2CC
  8
BLATTANSICHT_1_GEOMETRIEAN
  6
VOLLINIE
 62
    18
 10
26.42909650016399
 20
0.0
 30
0.0
 11
26.16334227227875
 21
0.0
 31
0.0
  0
LINE
  5
2CD
  8
BLATTANSICHT_1_GEOMETRIEAN
  6
VOLLINIE
 62
    18
 10
26.99999999216999
 20
0.0
 30
0.0
 11
26.97688000307614
 21
0.0
 31
0.0
  0
LINE
  5
2CE
  8
BLATTANSICHT_1_GEOMETRIEAN
  6
VOLLINIE
 62
    18
 10
26.97688000307614
 20
0.0
 30
0.0
 11
26.90766255477337
 21
0.0
 31
0.0
  0
LINE
  5
2CF
  8
BLATTANSICHT_1_GEOMETRIEAN
  6
VOLLINIE
 62
    18
 10
26.90766255477337
 20
0.0
 30
0.0
 11
26.79277440367615
 21
0.0
 31
0.0
  0
LINE
  5
2D0
  8
BLATTANSICHT_1_GEOMETRIEAN
  6
VOLLINIE
 62
    18
 10
26.79277440367615
 20
0.0
 30
0.0
 11
26.63292387343781
 21
0.0
 31
0.0
  0
LINE
  5
2D1
  8
BLATTANSICHT_1_GEOMETRIEAN
  6
VOLLINIE
 62
    18
 10
26.63292387343781
 20
0.0
 30
0.0
 11
26.42909650016399
 21
0.0
 31
0.0
  0
LINE
  5
2D2
  8
BLATTANSICHT_1_GEOMETRIEAN
  6
VOLLINIE
 62
    18
 10
26.99999999260498
 20
-1.499999999999997
 30
0.0
 11
26.99999999216999
 21
0.0
 31
0.0
  0
LINE
  5
2D3
  8
BLATTANSICHT_1_GEOMETRIEAN
  6
VOLLINIE
 62
    18
 10
26.91892828465678
 20
-1.499999999999997
 30
0.0
 11
26.96390271776431
 21
-1.499999999999997
 31
0.0
  0
LINE
  5
2D4
  8
BLATTANSICHT_1_GEOMETRIEAN
  6
VOLLINIE
 62
    18
 10
26.85613463164618
 20
-1.499999999999997
 30
0.0
 11
26.91892828465678
 21
-1.499999999999997
 31
0.0
  0
LINE
  5
2D5
  8
BLATTANSICHT_1_GEOMETRIEAN
  6
VOLLINIE
 62
    18
 10
26.77562121093651
 20
-1.499999999999997
 30
0.0
 11
26.85613463164618
 21
-1.499999999999997
 31
0.0
  0
LINE
  5
2D6
  8
BLATTANSICHT_1_GEOMETRIEAN
  6
VOLLINIE
 62
    18
 10
26.67748800688557
 20
-1.499999999999997
 30
0.0
 11
26.77562121093651
 21
-1.499999999999997
 31
0.0
  0
LINE
  5
2D7
  8
BLATTANSICHT_1_GEOMETRIEAN
  6
VOLLINIE
 62
    18
 10
26.42909650512598
 20
-1.499999999999997
 30
0.0
 11
26.56183466786513
 21
-1.499999999999997
 31
0.0
  0
LINE
  5
2D8
  8
BLATTANSICHT_1_GEOMETRIEAN
  6
VOLLINIE
 62
    18
 10
26.99095931670052
 20
-1.499999999999997
 30
0.0
 11
26.99999999260498
 21
-1.499999999999997
 31
0.0
  0
LINE
  5
2D9
  8
BLATTANSICHT_1_GEOMETRIEAN
  6
VOLLINIE
 62
    18
 10
26.96390271776431
 20
-1.499999999999997
 30
0.0
 11
26.99095931670052
 21
-1.499999999999997
 31
0.0
  0
LINE
  5
2DA
  8
BLATTANSICHT_1_GEOMETRIEAN
  6
VOLLINIE
 62
    18
 10
26.56183466786513
 20
-1.499999999999997
 30
0.0
 11
26.67748800688557
 21
-1.499999999999997
 31
0.0
  0
LINE
  5
2DB
  8
BLATTANSICHT_1_GEOMETRIEAN
  6
VOLLINIE
 62
    18
 10
26.27987769710095
 20
-1.499999999999997
 30
0.0
 11
26.42909650512598
 21
-1.499999999999997
 31
0.0
  0
LINE
  5
2DC
  8
BLATTANSICHT_1_GEOMETRIEAN
  6
VOLLINIE
 62
    18
 10
26.11451979099309
 20
-1.499999999999997
 30
0.0
 11
26.27987769710095
 21
-1.499999999999997
 31
0.0
  0
LINE
  5
2DD
  8
BLATTANSICHT_1_GEOMETRIEAN
  6
VOLLINIE
 62
    18
 10
25.93336394331045
 20
-1.499999999999997
 30
0.0
 11
26.11451979099309
 21
-1.499999999999997
 31
0.0
  0
LINE
  5
2DE
  8
BLATTANSICHT_1_GEOMETRIEAN
  6
VOLLINIE
 62
    18
 10
24.80330086937699
 20
-1.499999999999997
 30
0.0
 11
25.05760613330306
 21
-1.499999999999997
 31
0.0
  0
LINE
  5
2DF
  8
BLATTANSICHT_1_GEOMETRIEAN
  6
VOLLINIE
 62
    18
 10
25.05760613330306
 20
-1.499999999999997
 30
0.0
 11
25.29852924058055
 21
-1.499999999999997
 31
0.0
  0
LINE
  5
2E0
  8
BLATTANSICHT_1_GEOMETRIEAN
  6
VOLLINIE
 62
    18
 10
25.29852924058055
 20
-1.499999999999997
 30
0.0
 11
25.52502603946663
 21
-1.499999999999997
 31
0.0
  0
LINE
  5
2E1
  8
BLATTANSICHT_1_GEOMETRIEAN
  6
VOLLINIE
 62
    18
 10
25.73675187715238
 20
-1.499999999999997
 30
0.0
 11
25.93336394331045
 21
-1.499999999999997
 31
0.0
  0
LINE
  5
2E2
  8
BLATTANSICHT_1_GEOMETRIEAN
  6
VOLLINIE
 62
    18
 10
25.52502603946663
 20
-1.499999999999997
 30
0.0
 11
25.73675187715238
 21
-1.499999999999997
 31
0.0
  0
LINE
  5
2E3
  8
BLATTANSICHT_1_GEOMETRIEAN
  6
VOLLINIE
 62
    18
 10
24.25817342281784
 20
-1.499999999999997
 30
0.0
 11
24.53664543317815
 21
-1.499999999999997
 31
0.0
  0
LINE
  5
2E4
  8
BLATTANSICHT_1_GEOMETRIEAN
  6
VOLLINIE
 62
    18
 10
23.96841800100943
 20
-1.499999999999997
 30
0.0
 11
24.25817342281784
 21
-1.499999999999997
 31
0.0
  0
LINE
  5
2E5
  8
BLATTANSICHT_1_GEOMETRIEAN
  6
VOLLINIE
 62
    18
 10
23.6679128159236
 20
-1.499999999999997
 30
0.0
 11
23.96841800100943
 21
-1.499999999999997
 31
0.0
  0
LINE
  5
2E6
  8
BLATTANSICHT_1_GEOMETRIEAN
  6
VOLLINIE
 62
    18
 10
23.35719200687653
 20
-1.499999999999997
 30
0.0
 11
23.6679128159236
 21
-1.499999999999997
 31
0.0
  0
LINE
  5
2E7
  8
BLATTANSICHT_1_GEOMETRIEAN
  6
VOLLINIE
 62
    18
 10
22.70725350460902
 20
-1.499999999999997
 30
0.0
 11
23.03678986429547
 21
-1.499999999999997
 31
0.0
  0
LINE
  5
2E8
  8
BLATTANSICHT_1_GEOMETRIEAN
  6
VOLLINIE
 62
    18
 10
22.37012445606069
 20
-1.499999999999997
 30
0.0
 11
22.70725350460902
 21
-1.499999999999997
 31
0.0
  0
LINE
  5
2E9
  8
BLATTANSICHT_1_GEOMETRIEAN
  6
VOLLINIE
 62
    18
 10
22.02664588382228
 20
-1.499999999999997
 30
0.0
 11
22.37012445606069
 21
-1.499999999999997
 31
0.0
  0
LINE
  5
2EA
  8
BLATTANSICHT_1_GEOMETRIEAN
  6
VOLLINIE
 62
    18
 10
21.67746302679272
 20
-1.499999999999997
 30
0.0
 11
22.02664588382228
 21
-1.499999999999997
 31
0.0
  0
LINE
  5
2EB
  8
BLATTANSICHT_1_GEOMETRIEAN
  6
VOLLINIE
 62
    18
 10
21.32322122053246
 20
-1.499999999999997
 30
0.0
 11
21.67746302679272
 21
-1.499999999999997
 31
0.0
  0
LINE
  5
2EC
  8
BLATTANSICHT_1_GEOMETRIEAN
  6
VOLLINIE
 62
    18
 10
20.96456609750526
 20
-1.499999999999997
 30
0.0
 11
21.32322122053246
 21
-1.499999999999997
 31
0.0
  0
LINE
  5
2ED
  8
BLATTANSICHT_1_GEOMETRIEAN
  6
VOLLINIE
 62
    18
 10
20.60214347007513
 20
-1.499999999999997
 30
0.0
 11
20.96456609750526
 21
-1.499999999999997
 31
0.0
  0
LINE
  5
2EE
  8
BLATTANSICHT_1_GEOMETRIEAN
  6
VOLLINIE
 62
    18
 10
19.49999999999999
 20
-1.499999998056003
 30
0.0
 11
19.86861224078524
 21
-1.499999999999997
 31
0.0
  0
LINE
  5
2EF
  8
BLATTANSICHT_1_GEOMETRIEAN
  6
VOLLINIE
 62
    18
 10
20.23659909106807
 20
-1.499999999999997
 30
0.0
 11
20.60214347007513
 21
-1.499999999999997
 31
0.0
  0
LINE
  5
2F0
  8
BLATTANSICHT_1_GEOMETRIEAN
  6
VOLLINIE
 62
    18
 10
19.86861224078524
 20
-1.499999999999997
 30
0.0
 11
20.23659909106807
 21
-1.499999999999997
 31
0.0
  0
LINE
  5
2F1
  8
BLATTANSICHT_1_GEOMETRIEAN
  6
VOLLINIE
 62
    18
 10
23.03678986429547
 20
-1.499999999999997
 30
0.0
 11
23.35719200687653
 21
-1.499999999999997
 31
0.0
  0
LINE
  5
2F2
  8
BLATTANSICHT_1_GEOMETRIEAN
  6
VOLLINIE
 62
    18
 10
24.53664543317815
 20
-1.499999999999997
 30
0.0
 11
24.80330086937699
 21
-1.499999999999997
 31
0.0
  0
LINE
  5
2F3
  8
BLATTANSICHT_1_GEOMETRIEAN
  6
VOLLINIE
 62
    18
 10
20.13037893803119
 20
0.0
 30
0.0
 11
19.49999999999999
 21
0.0
 31
0.0
  0
LINE
  5
2F4
  8
BLATTANSICHT_1_GEOMETRIEAN
  6
VOLLINIE
 62
    18
 10
20.7562966768866
 20
0.0
 30
0.0
 11
20.13037893803119
 21
0.0
 31
0.0
  0
LINE
  5
2F5
  8
BLATTANSICHT_1_GEOMETRIEAN
  6
VOLLINIE
 62
    18
 10
21.37332358934968
 20
0.0
 30
0.0
 11
20.7562966768866
 21
0.0
 31
0.0
  0
LINE
  5
2F6
  8
BLATTANSICHT_1_GEOMETRIEAN
  6
VOLLINIE
 62
    18
 10
23.66677675510199
 20
0.0
 30
0.0
 11
23.12789165888514
 21
0.0
 31
0.0
  0
LINE
  5
2F7
  8
BLATTANSICHT_1_GEOMETRIEAN
  6
VOLLINIE
 62
    18
 10
23.12789165888514
 20
0.0
 30
0.0
 11
22.56333193188329
 21
0.0
 31
0.0
  0
LINE
  5
2F8
  8
BLATTANSICHT_1_GEOMETRIEAN
  6
VOLLINIE
 62
    18
 10
21.97709296868697
 20
0.0
 30
0.0
 11
21.37332358934968
 21
0.0
 31
0.0
  0
LINE
  5
2F9
  8
BLATTANSICHT_1_GEOMETRIEAN
  6
VOLLINIE
 62
    18
 10
22.56333193188329
 20
0.0
 30
0.0
 11
21.97709296868697
 21
0.0
 31
0.0
  0
LINE
  5
2FA
  8
BLATTANSICHT_1_GEOMETRIEAN
  6
VOLLINIE
 62
    18
 10
1.363210627048238
 20
-9.46892428915255
 30
0.0
 11
1.432748481940397
 21
-9.182816124396526
 31
0.0
  0
LINE
  5
2FB
  8
BLATTANSICHT_1_GEOMETRIEAN
  6
VOLLINIE
 62
    18
 10
0.8544630375923917
 20
-10.52534954193562
 30
0.0
 11
1.014594196444454
 21
-10.27826371237885
 31
0.0
  0
LINE
  5
2FC
  8
BLATTANSICHT_1_GEOMETRIEAN
  6
VOLLINIE
 62
    18
 10
0.4748737269449114
 20
-10.97487374136092
 30
0.0
 11
0.6741308099884469
 21
-10.75810194877701
 31
0.0
  0
LINE
  5
2FD
  8
BLATTANSICHT_1_GEOMETRIEAN
  6
VOLLINIE
 62
    18
 10
0.6741308099884469
 20
-10.75810194877701
 30
0.0
 11
0.8544630375923917
 21
-10.52534954193562
 31
0.0
  0
LINE
  5
2FE
  8
BLATTANSICHT_1_GEOMETRIEAN
  6
VOLLINIE
 62
    18
 10
1.014594196444454
 20
-10.27826371237885
 30
0.0
 11
1.153391036435357
 21
-10.01859308945126
 31
0.0
  0
LINE
  5
2FF
  8
BLATTANSICHT_1_GEOMETRIEAN
  6
VOLLINIE
 62
    18
 10
1.153391036435357
 20
-10.01859308945126
 30
0.0
 11
1.269871290683284
 21
-9.748175365229269
 31
0.0
  0
LINE
  5
300
  8
BLATTANSICHT_1_GEOMETRIEAN
  6
VOLLINIE
 62
    18
 10
1.269871290683284
 20
-9.748175365229269
 30
0.0
 11
1.363210627048238
 21
-9.46892428915255
 31
0.0
  0
LINE
  5
301
  8
BLATTANSICHT_1_GEOMETRIEAN
  6
VOLLINIE
 62
    18
 10
-0.0555041776880042
 20
-11.41014363855312
 30
0.0
 11
0.1306650031243073
 21
-11.27673668979637
 31
0.0
  0
LINE
  5
302
  8
BLATTANSICHT_1_GEOMETRIEAN
  6
VOLLINIE
 62
    18
 10
0.1306650031243073
 20
-11.27673668979637
 30
0.0
 11
0.3077103497734362
 21
-11.1314393288747
 31
0.0
  0
LINE
  5
303
  8
BLATTANSICHT_1_GEOMETRIEAN
  6
VOLLINIE
 62
    18
 10
0.3077103497734362
 20
-11.1314393288747
 30
0.0
 11
0.4748737269449114
 21
-10.97487374136092
 31
0.0
  0
LINE
  5
304
  8
BLATTANSICHT_1_GEOMETRIEAN
  6
VOLLINIE
 62
    18
 10
-4.130665003124306
 20
-11.27673668979637
 30
0.0
 11
-3.944495822312
 21
-11.41014363855312
 31
0.0
  0
LINE
  5
305
  8
BLATTANSICHT_1_GEOMETRIEAN
  6
VOLLINIE
 62
    18
 10
-4.307710349773434
 20
-11.1314393288747
 30
0.0
 11
-4.130665003124306
 21
-11.27673668979637
 31
0.0
  0
LINE
  5
306
  8
BLATTANSICHT_1_GEOMETRIEAN
  6
VOLLINIE
 62
    18
 10
-4.474873726944915
 20
-10.97487374136092
 30
0.0
 11
-4.307710349773434
 21
-11.1314393288747
 31
0.0
  0
LINE
  5
307
  8
BLATTANSICHT_1_GEOMETRIEAN
  6
VOLLINIE
 62
    18
 10
-4.85446303759239
 20
-10.52534954193562
 30
0.0
 11
-4.67413080998845
 21
-10.75810194877701
 31
0.0
  0
LINE
  5
308
  8
BLATTANSICHT_1_GEOMETRIEAN
  6
VOLLINIE
 62
    18
 10
-5.153391036435361
 20
-10.01859308945126
 30
0.0
 11
-5.014594196444459
 21
-10.27826371237885
 31
0.0
  0
LINE
  5
309
  8
BLATTANSICHT_1_GEOMETRIEAN
  6
VOLLINIE
 62
    18
 10
-5.432748481940401
 20
-9.182816124396526
 30
0.0
 11
-5.363210627048241
 21
-9.46892428915255
 31
0.0
  0
LINE
  5
30A
  8
BLATTANSICHT_1_GEOMETRIEAN
  6
VOLLINIE
 62
    18
 10
-5.363210627048241
 20
-9.46892428915255
 30
0.0
 11
-5.269871290683282
 21
-9.74817536522928
 31
0.0
  0
LINE
  5
30B
  8
BLATTANSICHT_1_GEOMETRIEAN
  6
VOLLINIE
 62
    18
 10
-5.269871290683282
 20
-9.74817536522928
 30
0.0
 11
-5.153391036435361
 21
-10.01859308945126
 31
0.0
  0
LINE
  5
30C
  8
BLATTANSICHT_1_GEOMETRIEAN
  6
VOLLINIE
 62
    18
 10
-5.014594196444459
 20
-10.27826371237885
 30
0.0
 11
-4.85446303759239
 21
-10.52534954193562
 31
0.0
  0
LINE
  5
30D
  8
BLATTANSICHT_1_GEOMETRIEAN
  6
VOLLINIE
 62
    18
 10
-4.67413080998845
 20
-10.75810194877701
 30
0.0
 11
-4.474873726944915
 21
-10.97487374136092
 31
0.0
  0
LINE
  5
30E
  8
BLATTANSICHT_1_GEOMETRIEAN
  6
VOLLINIE
 62
    18
 10
-5.470057015016981
 20
-8.956841671185355
 30
0.0
 11
-5.432748481940401
 21
-9.182816124396526
 31
0.0
  0
LINE
  5
30F
  8
BLATTANSICHT_1_GEOMETRIEAN
  6
VOLLINIE
 62
    18
 10
-5.500000000000001
 20
-8.499999999999996
 30
0.0
 11
-5.492506231366832
 21
-8.728910951821563
 31
0.0
  0
LINE
  5
310
  8
BLATTANSICHT_1_GEOMETRIEAN
  6
VOLLINIE
 62
    18
 10
-5.492506231366832
 20
-8.728910951821563
 30
0.0
 11
-5.470057015016981
 21
-8.956841671185355
 31
0.0
  0
LINE
  5
311
  8
BLATTANSICHT_1_GEOMETRIEAN
  6
VOLLINIE
 62
    18
 10
-5.500000000000001
 20
-4.500000000000003
 30
0.0
 11
-5.500000000000001
 21
-8.499999999999996
 31
0.0
  0
LINE
  5
312
  8
BLATTANSICHT_1_GEOMETRIEAN
  6
VOLLINIE
 62
    18
 10
-4.000000000000004
 20
-4.500000000000003
 30
0.0
 11
-5.500000000000001
 21
-4.500000000000003
 31
0.0
  0
LINE
  5
313
  8
BLATTANSICHT_1_GEOMETRIEAN
  6
VOLLINIE
 62
    18
 10
-4.000000000000004
 20
-8.500000000359169
 30
0.0
 11
-4.000000000000004
 21
-4.500000000000003
 31
0.0
  0
LINE
  5
314
  8
BLATTANSICHT_1_GEOMETRIEAN
  6
VOLLINIE
 62
    18
 10
-3.995717846455277
 20
-8.630806258794895
 30
0.0
 11
-4.000000000000004
 21
-8.500000000359169
 31
0.0
  0
LINE
  5
315
  8
BLATTANSICHT_1_GEOMETRIEAN
  6
VOLLINIE
 62
    18
 10
-3.982889722706964
 20
-8.761052384748924
 30
0.0
 11
-3.995717846455277
 21
-8.630806258794895
 31
0.0
  0
LINE
  5
316
  8
BLATTANSICHT_1_GEOMETRIEAN
  6
VOLLINIE
 62
    18
 10
-3.961570560750346
 20
-8.890180644314382
 30
0.0
 11
-3.982889722706964
 21
-8.761052384748924
 31
0.0
  0
LINE
  5
317
  8
BLATTANSICHT_1_GEOMETRIEAN
  6
VOLLINIE
 62
    18
 10
-3.931851653127808
 20
-9.017638088153628
 30
0.0
 11
-3.961570560750346
 21
-8.890180644314382
 31
0.0
  0
LINE
  5
318
  8
BLATTANSICHT_1_GEOMETRIEAN
  6
VOLLINIE
 62
    18
 10
-3.893860260448005
 20
-9.142878926311807
 30
0.0
 11
-3.931851653127808
 21
-9.017638088153628
 31
0.0
  0
LINE
  5
319
  8
BLATTANSICHT_1_GEOMETRIEAN
  6
VOLLINIE
 62
    18
 10
-3.847759067680931
 20
-9.26536685831234
 30
0.0
 11
-3.893860260448005
 21
-9.142878926311807
 31
0.0
  0
LINE
  5
31A
  8
BLATTANSICHT_1_GEOMETRIEAN
  6
VOLLINIE
 62
    18
 10
-3.782013050104592
 20
-9.407980996087986
 30
0.0
 11
-3.847759067680931
 21
-9.26536685831234
 31
0.0
  0
LINE
  5
31B
  8
BLATTANSICHT_1_GEOMETRIEAN
  6
VOLLINIE
 62
    18
 10
-3.705280329055775
 20
-9.544997128864681
 30
0.0
 11
-3.782013050104592
 21
-9.407980996087986
 31
0.0
  0
LINE
  5
31C
  8
BLATTANSICHT_1_GEOMETRIEAN
  6
VOLLINIE
 62
    18
 10
-3.618033987294871
 20
-9.675570506587611
 30
0.0
 11
-3.705280329055775
 21
-9.544997128864681
 31
0.0
  0
LINE
  5
31D
  8
BLATTANSICHT_1_GEOMETRIEAN
  6
VOLLINIE
 62
    18
 10
-3.520811927552682
 20
-9.798896100930902
 30
0.0
 11
-3.618033987294871
 21
-9.675570506587611
 31
0.0
  0
LINE
  5
31E
  8
BLATTANSICHT_1_GEOMETRIEAN
  6
VOLLINIE
 62
    18
 10
-3.414213556181097
 20
-9.914213568565097
 30
0.0
 11
-3.520811927552682
 21
-9.798896100930902
 31
0.0
  0
LINE
  5
31F
  8
BLATTANSICHT_1_GEOMETRIEAN
  6
VOLLINIE
 62
    18
 10
-3.318691628373982
 20
-10.00367961655945
 30
0.0
 11
-3.414213556181097
 21
-9.914213568565097
 31
0.0
  0
LINE
  5
320
  8
BLATTANSICHT_1_GEOMETRIEAN
  6
VOLLINIE
 62
    18
 10
-3.217522861110707
 20
-10.08670667820892
 30
0.0
 11
-3.318691628373982
 21
-10.00367961655945
 31
0.0
  0
LINE
  5
321
  8
BLATTANSICHT_1_GEOMETRIEAN
  6
VOLLINIE
 62
    18
 10
-3.111140474542533
 20
-10.16293921892335
 30
0.0
 11
-3.217522861110707
 21
-10.08670667820892
 31
0.0
  0
LINE
  5
322
  8
BLATTANSICHT_1_GEOMETRIEAN
  6
VOLLINIE
 62
    18
 10
-3.00000000866274
 20
-10.23205080256744
 30
0.0
 11
-3.111140474542533
 21
-10.16293921892335
 31
0.0
  0
LINE
  5
323
  8
BLATTANSICHT_1_GEOMETRIEAN
  6
VOLLINIE
 62
    18
 10
-2.884577389208413
 20
-10.29374547874029
 30
0.0
 11
-3.00000000866274
 21
-10.23205080256744
 31
0.0
  0
LINE
  5
324
  8
BLATTANSICHT_1_GEOMETRIEAN
  6
VOLLINIE
 62
    18
 10
-2.765366873557745
 20
-10.34775906136608
 30
0.0
 11
-2.884577389208413
 21
-10.29374547874029
 31
0.0
  0
LINE
  5
325
  8
BLATTANSICHT_1_GEOMETRIEAN
  6
VOLLINIE
 62
    18
 10
-2.642878938470804
 20
-10.39386025632058
 30
0.0
 11
-2.765366873557745
 21
-10.34775906136608
 31
0.0
  0
LINE
  5
326
  8
BLATTANSICHT_1_GEOMETRIEAN
  6
VOLLINIE
 62
    18
 10
-2.517638097020224
 20
-10.43185165075201
 30
0.0
 11
-2.642878938470804
 21
-10.39386025632058
 31
0.0
  0
LINE
  5
327
  8
BLATTANSICHT_1_GEOMETRIEAN
  6
VOLLINIE
 62
    18
 10
-2.390180649726654
 20
-10.46157055967377
 30
0.0
 11
-2.517638097020224
 21
-10.43185165075201
 31
0.0
  0
LINE
  5
328
  8
BLATTANSICHT_1_GEOMETRIEAN
  6
VOLLINIE
 62
    18
 10
-2.2350747983751
 20
-10.4861369135004
 30
0.0
 11
-2.390180649726654
 21
-10.46157055967377
 31
0.0
  0
LINE
  5
329
  8
BLATTANSICHT_1_GEOMETRIEAN
  6
VOLLINIE
 62
    18
 10
-2.078519632678433
 20
-10.49845807243586
 30
0.0
 11
-2.2350747983751
 21
-10.4861369135004
 31
0.0
  0
LINE
  5
32A
  8
BLATTANSICHT_1_GEOMETRIEAN
  6
VOLLINIE
 62
    18
 10
-1.921480367321571
 20
-10.49845807243586
 30
0.0
 11
-2.078519632678433
 21
-10.49845807243586
 31
0.0
  0
LINE
  5
32B
  8
BLATTANSICHT_1_GEOMETRIEAN
  6
VOLLINIE
 62
    18
 10
-1.764925201624904
 20
-10.4861369135004
 30
0.0
 11
-1.921480367321571
 21
-10.49845807243586
 31
0.0
  0
LINE
  5
32C
  8
BLATTANSICHT_1_GEOMETRIEAN
  6
VOLLINIE
 62
    18
 10
-1.60981935027335
 20
-10.46157055967377
 30
0.0
 11
-1.764925201624904
 21
-10.4861369135004
 31
0.0
  0
LINE
  5
32D
  8
BLATTANSICHT_1_GEOMETRIEAN
  6
VOLLINIE
 62
    18
 10
-3.944495822312
 20
-11.41014363855312
 30
0.0
 11
-3.750000007263189
 21
-11.53108890905213
 31
0.0
  0
LINE
  5
32E
  8
BLATTANSICHT_1_GEOMETRIEAN
  6
VOLLINIE
 62
    18
 10
-3.750000007263189
 20
-11.53108890905213
 30
0.0
 11
-3.548010423536478
 21
-11.63905459153268
 31
0.0
  0
LINE
  5
32F
  8
BLATTANSICHT_1_GEOMETRIEAN
  6
VOLLINIE
 62
    18
 10
-3.548010423536478
 20
-11.63905459153268
 30
0.0
 11
-3.339392021537302
 21
-11.73357836036831
 31
0.0
  0
LINE
  5
330
  8
BLATTANSICHT_1_GEOMETRIEAN
  6
VOLLINIE
 62
    18
 10
-3.339392021537302
 20
-11.73357836036831
 30
0.0
 11
-3.052470304896474
 21
-11.83800932552788
 31
0.0
  0
LINE
  5
331
  8
BLATTANSICHT_1_GEOMETRIEAN
  6
VOLLINIE
 62
    18
 10
-3.052470304896474
 20
-11.83800932552788
 30
0.0
 11
-2.757538653632301
 21
-11.91703602384477
 31
0.0
  0
LINE
  5
332
  8
BLATTANSICHT_1_GEOMETRIEAN
  6
VOLLINIE
 62
    18
 10
-2.757538653632301
 20
-11.91703602384477
 30
0.0
 11
-2.45684167572469
 21
-11.97005701441936
 31
0.0
  0
LINE
  5
333
  8
BLATTANSICHT_1_GEOMETRIEAN
  6
VOLLINIE
 62
    18
 10
-2.45684167572469
 20
-11.97005701441936
 30
0.0
 11
-2.152667856771068
 21
-11.99666877549317
 31
0.0
  0
LINE
  5
334
  8
BLATTANSICHT_1_GEOMETRIEAN
  6
VOLLINIE
 62
    18
 10
-2.152667856771068
 20
-11.99666877549317
 30
0.0
 11
-1.847332143228936
 21
-11.99666877549317
 31
0.0
  0
LINE
  5
335
  8
BLATTANSICHT_1_GEOMETRIEAN
  6
VOLLINIE
 62
    18
 10
-1.847332143228936
 20
-11.99666877549317
 30
0.0
 11
-1.543158324275314
 21
-11.97005701441936
 31
0.0
  0
LINE
  5
336
  8
BLATTANSICHT_1_GEOMETRIEAN
  6
VOLLINIE
 62
    18
 10
-1.543158324275314
 20
-11.97005701441936
 30
0.0
 11
-1.242461346367703
 21
-11.91703602384477
 31
0.0
  0
LINE
  5
337
  8
BLATTANSICHT_1_GEOMETRIEAN
  6
VOLLINIE
 62
    18
 10
-1.242461346367703
 20
-11.91703602384477
 30
0.0
 11
-0.9475296951035245
 21
-11.83800932552788
 31
0.0
  0
LINE
  5
338
  8
BLATTANSICHT_1_GEOMETRIEAN
  6
VOLLINIE
 62
    18
 10
-0.9475296951035245
 20
-11.83800932552788
 30
0.0
 11
-0.660607978462691
 21
-11.73357836036831
 31
0.0
  0
LINE
  5
339
  8
BLATTANSICHT_1_GEOMETRIEAN
  6
VOLLINIE
 62
    18
 10
-0.660607978462691
 20
-11.73357836036831
 30
0.0
 11
-0.4519895764635256
 21
-11.63905459153268
 31
0.0
  0
LINE
  5
33A
  8
BLATTANSICHT_1_GEOMETRIEAN
  6
VOLLINIE
 62
    18
 10
-0.2499999927368149
 20
-11.53108890905213
 30
0.0
 11
-0.0555041776880042
 21
-11.41014363855312
 31
0.0
  0
LINE
  5
33B
  8
BLATTANSICHT_1_GEOMETRIEAN
  6
VOLLINIE
 62
    18
 10
-0.4519895764635256
 20
-11.63905459153268
 30
0.0
 11
-0.2499999927368149
 21
-11.53108890905213
 31
0.0
  0
LINE
  5
33C
  8
BLATTANSICHT_1_GEOMETRIEAN
  6
VOLLINIE
 62
    18
 10
1.499999999999997
 20
-8.500000001435719
 30
0.0
 11
1.499999999999997
 21
-1.499999999999997
 31
0.0
  0
LINE
  5
33D
  8
BLATTANSICHT_1_GEOMETRIEAN
  6
VOLLINIE
 62
    18
 10
0.0
 20
0.0
 30
0.0
 11
0.0
 21
-8.499999999999996
 31
0.0
  0
LINE
  5
33E
  8
BLATTANSICHT_1_GEOMETRIEAN
  6
VOLLINIE
 62
    18
 10
19.49999999999999
 20
0.0
 30
0.0
 11
0.0
 21
0.0
 31
0.0
  0
LINE
  5
33F
  8
BLATTANSICHT_1_GEOMETRIEAN
  6
VOLLINIE
 62
    18
 10
1.499999999999997
 20
-1.499999999999997
 30
0.0
 11
19.49999999999999
 21
-1.499999998056003
 31
0.0
  0
LINE
  5
340
  8
BLATTANSICHT_1_GEOMETRIEAN
  6
VOLLINIE
 62
    18
 10
19.49999999999999
 20
-1.499999998056003
 30
0.0
 11
19.49999999999999
 21
0.0
 31
0.0
  0
LINE
  5
341
  8
BLATTANSICHT_1_GEOMETRIEAN
  6
VOLLINIE
 62
    18
 10
-1.48236190297978
 20
-10.43185165075201
 30
0.0
 11
-1.60981935027335
 21
-10.46157055967377
 31
0.0
  0
LINE
  5
342
  8
BLATTANSICHT_1_GEOMETRIEAN
  6
VOLLINIE
 62
    18
 10
-1.3571210615292
 20
-10.39386025632058
 30
0.0
 11
-1.48236190297978
 21
-10.43185165075201
 31
0.0
  0
LINE
  5
343
  8
BLATTANSICHT_1_GEOMETRIEAN
  6
VOLLINIE
 62
    18
 10
-1.234633126442259
 20
-10.34775906136608
 30
0.0
 11
-1.3571210615292
 21
-10.39386025632058
 31
0.0
  0
LINE
  5
344
  8
BLATTANSICHT_1_GEOMETRIEAN
  6
VOLLINIE
 62
    18
 10
-1.115422610791597
 20
-10.29374547874029
 30
0.0
 11
-1.234633126442259
 21
-10.34775906136608
 31
0.0
  0
LINE
  5
345
  8
BLATTANSICHT_1_GEOMETRIEAN
  6
VOLLINIE
 62
    18
 10
-0.9999999913372641
 20
-10.23205080256744
 30
0.0
 11
-1.115422610791597
 21
-10.29374547874029
 31
0.0
  0
LINE
  5
346
  8
BLATTANSICHT_1_GEOMETRIEAN
  6
VOLLINIE
 62
    18
 10
-0.8888595254574658
 20
-10.16293921892335
 30
0.0
 11
-0.9999999913372641
 21
-10.23205080256744
 31
0.0
  0
LINE
  5
347
  8
BLATTANSICHT_1_GEOMETRIEAN
  6
VOLLINIE
 62
    18
 10
-0.7824771388893025
 20
-10.08670667820892
 30
0.0
 11
-0.8888595254574658
 21
-10.16293921892335
 31
0.0
  0
LINE
  5
348
  8
BLATTANSICHT_1_GEOMETRIEAN
  6
VOLLINIE
 62
    18
 10
-0.6813083716260219
 20
-10.00367961655946
 30
0.0
 11
-0.7824771388893025
 21
-10.08670667820892
 31
0.0
  0
LINE
  5
349
  8
BLATTANSICHT_1_GEOMETRIEAN
  6
VOLLINIE
 62
    18
 10
-0.5857864438189125
 20
-9.914213568565097
 30
0.0
 11
-0.6813083716260219
 21
-10.00367961655946
 31
0.0
  0
LINE
  5
34A
  8
BLATTANSICHT_1_GEOMETRIEAN
  6
VOLLINIE
 62
    18
 10
-0.4791880724473221
 20
-9.798896100930902
 30
0.0
 11
-0.5857864438189125
 21
-9.914213568565097
 31
0.0
  0
LINE
  5
34B
  8
BLATTANSICHT_1_GEOMETRIEAN
  6
VOLLINIE
 62
    18
 10
-0.3819660127051386
 20
-9.675570506587622
 30
0.0
 11
-0.4791880724473221
 21
-9.798896100930902
 31
0.0
  0
LINE
  5
34C
  8
BLATTANSICHT_1_GEOMETRIEAN
  6
VOLLINIE
 62
    18
 10
-0.2947196709442291
 20
-9.544997128864681
 30
0.0
 11
-0.3819660127051386
 21
-9.675570506587622
 31
0.0
  0
LINE
  5
34D
  8
BLATTANSICHT_1_GEOMETRIEAN
  6
VOLLINIE
 62
    18
 10
-0.2179869498954121
 20
-9.407980996087986
 30
0.0
 11
-0.2947196709442291
 21
-9.544997128864681
 31
0.0
  0
LINE
  5
34E
  8
BLATTANSICHT_1_GEOMETRIEAN
  6
VOLLINIE
 62
    18
 10
-0.1522409323190677
 20
-9.26536685831234
 30
0.0
 11
-0.2179869498954121
 21
-9.407980996087986
 31
0.0
  0
LINE
  5
34F
  8
BLATTANSICHT_1_GEOMETRIEAN
  6
VOLLINIE
 62
    18
 10
-0.1061397395519989
 20
-9.142878926311807
 30
0.0
 11
-0.1522409323190677
 21
-9.26536685831234
 31
0.0
  0
LINE
  5
350
  8
BLATTANSICHT_1_GEOMETRIEAN
  6
VOLLINIE
 62
    18
 10
-0.0681483468721956
 20
-9.017638088153628
 30
0.0
 11
-0.1061397395519989
 21
-9.142878926311807
 31
0.0
  0
LINE
  5
351
  8
BLATTANSICHT_1_GEOMETRIEAN
  6
VOLLINIE
 62
    18
 10
-0.0384294392496583
 20
-8.89018064431437
 30
0.0
 11
-0.0681483468721956
 21
-9.017638088153628
 31
0.0
  0
LINE
  5
352
  8
BLATTANSICHT_1_GEOMETRIEAN
  6
VOLLINIE
 62
    18
 10
1.432748481940397
 20
-9.182816124396526
 30
0.0
 11
1.470057014981863
 21
-8.956841671452112
 31
0.0
  0
LINE
  5
353
  8
BLATTANSICHT_1_GEOMETRIEAN
  6
VOLLINIE
 62
    18
 10
1.470057014981863
 20
-8.956841671452112
 30
0.0
 11
1.492506231331629
 21
-8.728910952358529
 31
0.0
  0
LINE
  5
354
  8
BLATTANSICHT_1_GEOMETRIEAN
  6
VOLLINIE
 62
    18
 10
1.492506231331629
 20
-8.728910952358529
 30
0.0
 11
1.499999999999997
 21
-8.500000001435719
 31
0.0
  0
LINE
  5
355
  8
BLATTANSICHT_1_GEOMETRIEAN
  6
VOLLINIE
 62
    18
 10
-0.0171102773131066
 20
-8.76105238490136
 30
0.0
 11
-0.0384294392496583
 21
-8.89018064431437
 31
0.0
  0
LINE
  5
356
  8
BLATTANSICHT_1_GEOMETRIEAN
  6
VOLLINIE
 62
    18
 10
-0.0042821535648335
 20
-8.63080625910173
 30
0.0
 11
-0.0171102773131066
 21
-8.76105238490136
 31
0.0
  0
LINE
  5
357
  8
BLATTANSICHT_1_GEOMETRIEAN
  6
VOLLINIE
 62
    18
 10
0.0
 20
-8.499999999999996
 30
0.0
 11
-0.0042821535648335
 21
-8.63080625910173
 31
0.0
  0
LINE
  5
358
  8
BLATTANSICHT_1_GEOMETRIEAN
  6
VOLLINIE
 62
    18
 10
87.55248894009434
 20
-0.7800679142159314
 30
0.0
 11
87.85460681480559
 21
-0.7800679142159314
 31
0.0
  0
LINE
  5
359
  8
BLATTANSICHT_1_GEOMETRIEAN
  6
VOLLINIE
 62
    18
 10
87.20093874350226
 20
-0.7800679142159314
 30
0.0
 11
87.55248894009434
 21
-0.7800679142159314
 31
0.0
  0
LINE
  5
35A
  8
BLATTANSICHT_1_GEOMETRIEAN
  6
VOLLINIE
 62
    18
 10
88.52875864833902
 20
-0.7800679142159314
 30
0.0
 11
88.55729841262719
 21
-0.7800679142159314
 31
0.0
  0
LINE
  5
35B
  8
BLATTANSICHT_1_GEOMETRIEAN
  6
VOLLINIE
 62
    18
 10
86.80263173430066
 20
-0.7800679142159314
 30
0.0
 11
87.20093874350226
 21
-0.7800679142159314
 31
0.0
  0
LINE
  5
35C
  8
BLATTANSICHT_1_GEOMETRIEAN
  6
VOLLINIE
 62
    18
 10
86.3605992776272
 20
-0.7800679142159539
 30
0.0
 11
86.80263173430066
 21
-0.7800679142159314
 31
0.0
  0
LINE
  5
35D
  8
BLATTANSICHT_1_GEOMETRIEAN
  6
VOLLINIE
 62
    18
 10
87.85460681480559
 20
-0.7800679142159314
 30
0.0
 11
88.10499306818274
 21
-0.7800679142159314
 31
0.0
  0
LINE
  5
35E
  8
BLATTANSICHT_1_GEOMETRIEAN
  6
VOLLINIE
 62
    18
 10
88.10499306818274
 20
-0.7800679142159314
 30
0.0
 11
88.30174210964779
 21
-0.7800679142159314
 31
0.0
  0
LINE
  5
35F
  8
BLATTANSICHT_1_GEOMETRIEAN
  6
VOLLINIE
 62
    18
 10
88.44335656019295
 20
-0.7800679142159314
 30
0.0
 11
88.52875864833902
 21
-0.7800679142159314
 31
0.0
  0
LINE
  5
360
  8
BLATTANSICHT_1_GEOMETRIEAN
  6
VOLLINIE
 62
    18
 10
88.30174210964779
 20
-0.7800679142159314
 30
0.0
 11
88.44335656019295
 21
-0.7800679142159314
 31
0.0
  0
LINE
  5
361
  8
BLATTANSICHT_1_GEOMETRIEAN
  6
VOLLINIE
 62
    18
 10
82.23055689772237
 20
-0.7800679142159314
 30
0.0
 11
82.80813863754962
 21
-0.7800679142159314
 31
0.0
  0
LINE
  5
362
  8
BLATTANSICHT_1_GEOMETRIEAN
  6
VOLLINIE
 62
    18
 10
82.80813863754962
 20
-0.7800679142159314
 30
0.0
 11
83.37492586522696
 21
-0.7800679142159314
 31
0.0
  0
LINE
  5
363
  8
BLATTANSICHT_1_GEOMETRIEAN
  6
VOLLINIE
 62
    18
 10
83.37492586522696
 20
-0.7800679142159314
 30
0.0
 11
83.92742415262721
 21
-0.7800679142159314
 31
0.0
  0
LINE
  5
364
  8
BLATTANSICHT_1_GEOMETRIEAN
  6
VOLLINIE
 62
    18
 10
81.64574162922014
 20
-0.7800679142159314
 30
0.0
 11
82.23055689772237
 21
-0.7800679142159314
 31
0.0
  0
LINE
  5
365
  8
BLATTANSICHT_1_GEOMETRIEAN
  6
VOLLINIE
 62
    18
 10
81.0572984126272
 20
-0.7800679142159314
 30
0.0
 11
81.64574162922014
 21
-0.7800679142159314
 31
0.0
  0
LINE
  5
366
  8
BLATTANSICHT_1_GEOMETRIEAN
  6
VOLLINIE
 62
    18
 10
85.46568780110148
 20
-0.7800679142159314
 30
0.0
 11
85.92815877217895
 21
-0.7800679142159314
 31
0.0
  0
LINE
  5
367
  8
BLATTANSICHT_1_GEOMETRIEAN
  6
VOLLINIE
 62
    18
 10
84.97603764343651
 20
-0.7800679142159314
 30
0.0
 11
85.46568780110148
 21
-0.7800679142159314
 31
0.0
  0
LINE
  5
368
  8
BLATTANSICHT_1_GEOMETRIEAN
  6
VOLLINIE
 62
    18
 10
84.46222715523903
 20
-0.7800679142159314
 30
0.0
 11
84.97603764343651
 21
-0.7800679142159314
 31
0.0
  0
LINE
  5
369
  8
BLATTANSICHT_1_GEOMETRIEAN
  6
VOLLINIE
 62
    18
 10
83.92742415262721
 20
-0.7800679142159314
 30
0.0
 11
84.46222715523903
 21
-0.7800679142159314
 31
0.0
  0
LINE
  5
36A
  8
BLATTANSICHT_1_GEOMETRIEAN
  6
VOLLINIE
 62
    18
 10
85.92815877217895
 20
-0.7800679142159314
 30
0.0
 11
86.3605992776272
 21
-0.7800679142159539
 31
0.0
  0
LINE
  5
36B
  8
BLATTANSICHT_1_GEOMETRIEAN
  6
VOLLINIE
 62
    18
 10
81.42537434241837
 20
0.7199320857840659
 30
0.0
 11
81.0572984126272
 21
0.7199320857840659
 31
0.0
  0
LINE
  5
36C
  8
BLATTANSICHT_1_GEOMETRIEAN
  6
VOLLINIE
 62
    18
 10
84.59247891648187
 20
0.7199320857840659
 30
0.0
 11
84.26399324841562
 21
0.7199320857840659
 31
0.0
  0
LINE
  5
36D
  8
BLATTANSICHT_1_GEOMETRIEAN
  6
VOLLINIE
 62
    18
 10
84.91230742423032
 20
0.7199320857840659
 30
0.0
 11
84.59247891648187
 21
0.7199320857840659
 31
0.0
  0
LINE
  5
36E
  8
BLATTANSICHT_1_GEOMETRIEAN
  6
VOLLINIE
 62
    18
 10
85.22290393572656
 20
0.7199320857840659
 30
0.0
 11
84.91230742423032
 21
0.7199320857840659
 31
0.0
  0
LINE
  5
36F
  8
BLATTANSICHT_1_GEOMETRIEAN
  6
VOLLINIE
 62
    18
 10
85.5236940665745
 20
0.7199320857840659
 30
0.0
 11
85.22290393572656
 21
0.7199320857840659
 31
0.0
  0
LINE
  5
370
  8
BLATTANSICHT_1_GEOMETRIEAN
  6
VOLLINIE
 62
    18
 10
85.81410380394624
 20
0.7199320857840659
 30
0.0
 11
85.5236940665745
 21
0.7199320857840659
 31
0.0
  0
LINE
  5
371
  8
BLATTANSICHT_1_GEOMETRIEAN
  6
VOLLINIE
 62
    18
 10
86.09353646645692
 20
0.7199320857840659
 30
0.0
 11
85.81410380394624
 21
0.7199320857840659
 31
0.0
  0
LINE
  5
372
  8
BLATTANSICHT_1_GEOMETRIEAN
  6
VOLLINIE
 62
    18
 10
86.3605992776272
 20
0.7199320857840659
 30
0.0
 11
86.09353646645692
 21
0.7199320857840659
 31
0.0
  0
LINE
  5
373
  8
BLATTANSICHT_1_GEOMETRIEAN
  6
VOLLINIE
 62
    18
 10
81.79214729609781
 20
0.7199320857840659
 30
0.0
 11
81.42537434241837
 21
0.7199320857840659
 31
0.0
  0
LINE
  5
374
  8
BLATTANSICHT_1_GEOMETRIEAN
  6
VOLLINIE
 62
    18
 10
82.15695708855395
 20
0.7199320857840659
 30
0.0
 11
81.79214729609781
 21
0.7199320857840659
 31
0.0
  0
LINE
  5
375
  8
BLATTANSICHT_1_GEOMETRIEAN
  6
VOLLINIE
 62
    18
 10
82.51914346743324
 20
0.7199320857840659
 30
0.0
 11
82.15695708855395
 21
0.7199320857840659
 31
0.0
  0
LINE
  5
376
  8
BLATTANSICHT_1_GEOMETRIEAN
  6
VOLLINIE
 62
    18
 10
82.8780463170331
 20
0.7199320857840659
 30
0.0
 11
82.51914346743324
 21
0.7199320857840659
 31
0.0
  0
LINE
  5
377
  8
BLATTANSICHT_1_GEOMETRIEAN
  6
VOLLINIE
 62
    18
 10
83.23300575719993
 20
0.7199320857840659
 30
0.0
 11
82.8780463170331
 21
0.7199320857840659
 31
0.0
  0
LINE
  5
378
  8
BLATTANSICHT_1_GEOMETRIEAN
  6
VOLLINIE
 62
    18
 10
83.58335031959332
 20
0.7199320857840659
 30
0.0
 11
83.23300575719993
 21
0.7199320857840659
 31
0.0
  0
LINE
  5
379
  8
BLATTANSICHT_1_GEOMETRIEAN
  6
VOLLINIE
 62
    18
 10
83.92742544798458
 20
0.7199320857840659
 30
0.0
 11
83.58335031959332
 21
0.7199320857840659
 31
0.0
  0
LINE
  5
37A
  8
BLATTANSICHT_1_GEOMETRIEAN
  6
VOLLINIE
 62
    18
 10
84.26399324841562
 20
0.7199320857840659
 30
0.0
 11
83.92742544798458
 21
0.7199320857840659
 31
0.0
  0
LINE
  5
37B
  8
BLATTANSICHT_1_GEOMETRIEAN
  6
VOLLINIE
 62
    18
 10
86.61443202331975
 20
0.7199320857840659
 30
0.0
 11
86.3605992776272
 21
0.7199320857840659
 31
0.0
  0
LINE
  5
37C
  8
BLATTANSICHT_1_GEOMETRIEAN
  6
VOLLINIE
 62
    18
 10
86.85463078345657
 20
0.7199320857840659
 30
0.0
 11
86.61443202331975
 21
0.7199320857840659
 31
0.0
  0
LINE
  5
37D
  8
BLATTANSICHT_1_GEOMETRIEAN
  6
VOLLINIE
 62
    18
 10
87.08079180396095
 20
0.7199320857840659
 30
0.0
 11
86.85463078345657
 21
0.7199320857840659
 31
0.0
  0
LINE
  5
37E
  8
BLATTANSICHT_1_GEOMETRIEAN
  6
VOLLINIE
 62
    18
 10
87.29251177888513
 20
0.7199320857840659
 30
0.0
 11
87.08079180396095
 21
0.7199320857840659
 31
0.0
  0
LINE
  5
37F
  8
BLATTANSICHT_1_GEOMETRIEAN
  6
VOLLINIE
 62
    18
 10
87.48938809063414
 20
0.7199320857840659
 30
0.0
 11
87.29251177888513
 21
0.7199320857840659
 31
0.0
  0
LINE
  5
380
  8
BLATTANSICHT_1_GEOMETRIEAN
  6
VOLLINIE
 62
    18
 10
87.67101853922222
 20
0.7199320857840659
 30
0.0
 11
87.48938809063414
 21
0.7199320857840659
 31
0.0
  0
LINE
  5
381
  8
BLATTANSICHT_1_GEOMETRIEAN
  6
VOLLINIE
 62
    18
 10
87.83697641259765
 20
0.7199320857840659
 30
0.0
 11
87.67101853922222
 21
0.7199320857840659
 31
0.0
  0
LINE
  5
382
  8
BLATTANSICHT_1_GEOMETRIEAN
  6
VOLLINIE
 62
    18
 10
87.98639490262723
 20
0.7199320857840659
 30
0.0
 11
87.83697641259765
 21
0.7199320857840659
 31
0.0
  0
LINE
  5
383
  8
BLATTANSICHT_1_GEOMETRIEAN
  6
VOLLINIE
 62
    18
 10
88.1188680256705
 20
0.7199320857840659
 30
0.0
 11
87.98639490262723
 21
0.7199320857840659
 31
0.0
  0
LINE
  5
384
  8
BLATTANSICHT_1_GEOMETRIEAN
  6
VOLLINIE
 62
    18
 10
88.23422374579094
 20
0.7199320857840659
 30
0.0
 11
88.1188680256705
 21
0.7199320857840659
 31
0.0
  0
LINE
  5
385
  8
BLATTANSICHT_1_GEOMETRIEAN
  6
VOLLINIE
 62
    18
 10
88.33229007537453
 20
0.7199320857840659
 30
0.0
 11
88.23422374579094
 21
0.7199320857840659
 31
0.0
  0
LINE
  5
386
  8
BLATTANSICHT_1_GEOMETRIEAN
  6
VOLLINIE
 62
    18
 10
88.41289566073031
 20
0.7199320857840659
 30
0.0
 11
88.33229007537453
 21
0.7199320857840659
 31
0.0
  0
LINE
  5
387
  8
BLATTANSICHT_1_GEOMETRIEAN
  6
VOLLINIE
 62
    18
 10
88.47586995628699
 20
0.7199320857840659
 30
0.0
 11
88.41289566073031
 21
0.7199320857840659
 31
0.0
  0
LINE
  5
388
  8
BLATTANSICHT_1_GEOMETRIEAN
  6
VOLLINIE
 62
    18
 10
88.521042790508
 20
0.7199320857840659
 30
0.0
 11
88.47586995628699
 21
0.7199320857840659
 31
0.0
  0
LINE
  5
389
  8
BLATTANSICHT_1_GEOMETRIEAN
  6
VOLLINIE
 62
    18
 10
88.5482388745687
 20
0.7199320857840659
 30
0.0
 11
88.521042790508
 21
0.7199320857840659
 31
0.0
  0
LINE
  5
38A
  8
BLATTANSICHT_1_GEOMETRIEAN
  6
VOLLINIE
 62
    18
 10
88.55729841262722
 20
0.7199320857840659
 30
0.0
 11
88.5482388745687
 21
0.7199320857840659
 31
0.0
  0
LINE
  5
38B
  8
BLATTANSICHT_1_GEOMETRIEAN
  6
VOLLINIE
 62
    18
 10
88.55729841262719
 20
-0.7800679142159314
 30
0.0
 11
88.55729841262722
 21
0.7199320857840659
 31
0.0
  0
LINE
  5
38C
  8
BLATTANSICHT_1_GEOMETRIEAN
  6
VOLLINIE
 62
    18
 10
75.19356229854442
 20
0.7199320857840659
 30
0.0
 11
74.8212763226272
 21
0.7199320857840659
 31
0.0
  0
LINE
  5
38D
  8
BLATTANSICHT_1_GEOMETRIEAN
  6
VOLLINIE
 62
    18
 10
76.05969908274785
 20
0.7199320857840659
 30
0.0
 11
75.60734600200432
 21
0.7199320857840659
 31
0.0
  0
LINE
  5
38E
  8
BLATTANSICHT_1_GEOMETRIEAN
  6
VOLLINIE
 62
    18
 10
76.54742023270438
 20
0.7199320857840659
 30
0.0
 11
76.05969908274785
 21
0.7199320857840659
 31
0.0
  0
LINE
  5
38F
  8
BLATTANSICHT_1_GEOMETRIEAN
  6
VOLLINIE
 62
    18
 10
75.60734600200432
 20
0.7199320857840659
 30
0.0
 11
75.19356229854442
 21
0.7199320857840659
 31
0.0
  0
LINE
  5
390
  8
BLATTANSICHT_1_GEOMETRIEAN
  6
VOLLINIE
 62
    18
 10
77.06705784356164
 20
0.7199320857840659
 30
0.0
 11
76.54742023270438
 21
0.7199320857840659
 31
0.0
  0
LINE
  5
391
  8
BLATTANSICHT_1_GEOMETRIEAN
  6
VOLLINIE
 62
    18
 10
77.6149344338384
 20
0.7199320857840659
 30
0.0
 11
77.06705784356164
 21
0.7199320857840659
 31
0.0
  0
LINE
  5
392
  8
BLATTANSICHT_1_GEOMETRIEAN
  6
VOLLINIE
 62
    18
 10
78.18717267262723
 20
0.7199320857840659
 30
0.0
 11
77.6149344338384
 21
0.7199320857840659
 31
0.0
  0
LINE
  5
393
  8
BLATTANSICHT_1_GEOMETRIEAN
  6
VOLLINIE
 62
    18
 10
81.0572984126272
 20
0.7199320857840659
 30
0.0
 11
80.4688551956557
 21
0.7199320857840659
 31
0.0
  0
LINE
  5
394
  8
BLATTANSICHT_1_GEOMETRIEAN
  6
VOLLINIE
 62
    18
 10
80.4688551956557
 20
0.7199320857840659
 30
0.0
 11
79.88403992678185
 21
0.7199320857840659
 31
0.0
  0
LINE
  5
395
  8
BLATTANSICHT_1_GEOMETRIEAN
  6
VOLLINIE
 62
    18
 10
79.88403992678185
 20
0.7199320857840659
 30
0.0
 11
79.30645818659697
 21
0.7199320857840659
 31
0.0
  0
LINE
  5
396
  8
BLATTANSICHT_1_GEOMETRIEAN
  6
VOLLINIE
 62
    18
 10
79.30645818659697
 20
0.7199320857840659
 30
0.0
 11
78.73967095858272
 21
0.7199320857840659
 31
0.0
  0
LINE
  5
397
  8
BLATTANSICHT_1_GEOMETRIEAN
  6
VOLLINIE
 62
    18
 10
78.73967095858272
 20
0.7199320857840659
 30
0.0
 11
78.18717267262723
 21
0.7199320857840659
 31
0.0
  0
LINE
  5
398
  8
BLATTANSICHT_1_GEOMETRIEAN
  6
VOLLINIE
 62
    18
 10
81.0572984126272
 20
-0.7800679142159314
 30
0.0
 11
81.0572984126272
 21
0.7199320857840659
 31
0.0
  0
LINE
  5
399
  8
BLATTANSICHT_1_GEOMETRIEAN
  6
VOLLINIE
 62
    18
 10
79.9575242962199
 20
-0.7800679142159314
 30
0.0
 11
80.32234520340212
 21
-0.7800679142159314
 31
0.0
  0
LINE
  5
39A
  8
BLATTANSICHT_1_GEOMETRIEAN
  6
VOLLINIE
 62
    18
 10
79.59535337908613
 20
-0.7800679142159314
 30
0.0
 11
79.9575242962199
 21
-0.7800679142159314
 31
0.0
  0
LINE
  5
39B
  8
BLATTANSICHT_1_GEOMETRIEAN
  6
VOLLINIE
 62
    18
 10
79.2364919992569
 20
-0.7800679142159314
 30
0.0
 11
79.59535337908613
 21
-0.7800679142159314
 31
0.0
  0
LINE
  5
39C
  8
BLATTANSICHT_1_GEOMETRIEAN
  6
VOLLINIE
 62
    18
 10
78.88159946492935
 20
-0.7800679142159314
 30
0.0
 11
79.2364919992569
 21
-0.7800679142159314
 31
0.0
  0
LINE
  5
39D
  8
BLATTANSICHT_1_GEOMETRIEAN
  6
VOLLINIE
 62
    18
 10
78.18717267262723
 20
-0.7800679142159314
 30
0.0
 11
78.53133500756019
 21
-0.7800679142159314
 31
0.0
  0
LINE
  5
39E
  8
BLATTANSICHT_1_GEOMETRIEAN
  6
VOLLINIE
 62
    18
 10
80.68915643520918
 20
-0.7800679142159314
 30
0.0
 11
81.0572984126272
 21
-0.7800679142159314
 31
0.0
  0
LINE
  5
39F
  8
BLATTANSICHT_1_GEOMETRIEAN
  6
VOLLINIE
 62
    18
 10
80.32234520340212
 20
-0.7800679142159314
 30
0.0
 11
80.68915643520918
 21
-0.7800679142159314
 31
0.0
  0
LINE
  5
3A0
  8
BLATTANSICHT_1_GEOMETRIEAN
  6
VOLLINIE
 62
    18
 10
78.53133500756019
 20
-0.7800679142159314
 30
0.0
 11
78.88159946492935
 21
-0.7800679142159314
 31
0.0
  0
LINE
  5
3A1
  8
BLATTANSICHT_1_GEOMETRIEAN
  6
VOLLINIE
 62
    18
 10
77.8505464090646
 20
-0.7800679142159314
 30
0.0
 11
78.18717267262723
 21
-0.7800679142159314
 31
0.0
  0
LINE
  5
3A2
  8
BLATTANSICHT_1_GEOMETRIEAN
  6
VOLLINIE
 62
    18
 10
77.52202926664123
 20
-0.7800679142159314
 30
0.0
 11
77.8505464090646
 21
-0.7800679142159314
 31
0.0
  0
LINE
  5
3A3
  8
BLATTANSICHT_1_GEOMETRIEAN
  6
VOLLINIE
 62
    18
 10
77.202194215214
 20
-0.7800679142159314
 30
0.0
 11
77.52202926664123
 21
-0.7800679142159314
 31
0.0
  0
LINE
  5
3A4
  8
BLATTANSICHT_1_GEOMETRIEAN
  6
VOLLINIE
 62
    18
 10
75.75399754762722
 20
-0.7800679142159314
 30
0.0
 11
76.02112783697433
 21
-0.7800679142159314
 31
0.0
  0
LINE
  5
3A5
  8
BLATTANSICHT_1_GEOMETRIEAN
  6
VOLLINIE
 62
    18
 10
76.02112783697433
 20
-0.7800679142159314
 30
0.0
 11
76.3005076198624
 21
-0.7800679142159314
 31
0.0
  0
LINE
  5
3A6
  8
BLATTANSICHT_1_GEOMETRIEAN
  6
VOLLINIE
 62
    18
 10
76.3005076198624
 20
-0.7800679142159314
 30
0.0
 11
76.59086121685823
 21
-0.7800679142159314
 31
0.0
  0
LINE
  5
3A7
  8
BLATTANSICHT_1_GEOMETRIEAN
  6
VOLLINIE
 62
    18
 10
76.89161407234937
 20
-0.7800679142159314
 30
0.0
 11
77.202194215214
 21
-0.7800679142159314
 31
0.0
  0
LINE
  5
3A8
  8
BLATTANSICHT_1_GEOMETRIEAN
  6
VOLLINIE
 62
    18
 10
76.59086121685823
 20
-0.7800679142159314
 30
0.0
 11
76.89161407234937
 21
-0.7800679142159314
 31
0.0
  0
LINE
  5
3A9
  8
BLATTANSICHT_1_GEOMETRIEAN
  6
VOLLINIE
 62
    18
 10
75.25990368064718
 20
-0.7800679142159314
 30
0.0
 11
75.50012262087422
 21
-0.7800679142159314
 31
0.0
  0
LINE
  5
3AA
  8
BLATTANSICHT_1_GEOMETRIEAN
  6
VOLLINIE
 62
    18
 10
75.03374127682658
 20
-0.7800679142159314
 30
0.0
 11
75.25990368064718
 21
-0.7800679142159314
 31
0.0
  0
LINE
  5
3AB
  8
BLATTANSICHT_1_GEOMETRIEAN
  6
VOLLINIE
 62
    18
 10
74.82203556661506
 20
-0.7800679142159314
 30
0.0
 11
75.03374127682658
 21
-0.7800679142159314
 31
0.0
  0
LINE
  5
3AC
  8
BLATTANSICHT_1_GEOMETRIEAN
  6
VOLLINIE
 62
    18
 10
74.62518602072302
 20
-0.7800679142159314
 30
0.0
 11
74.82203556661506
 21
-0.7800679142159314
 31
0.0
  0
LINE
  5
3AD
  8
BLATTANSICHT_1_GEOMETRIEAN
  6
VOLLINIE
 62
    18
 10
74.27765793859227
 20
-0.7800679142159314
 30
0.0
 11
74.44359162627687
 21
-0.7800679142159314
 31
0.0
  0
LINE
  5
3AE
  8
BLATTANSICHT_1_GEOMETRIEAN
  6
VOLLINIE
 62
    18
 10
74.12820138583345
 20
-0.7800679142159314
 30
0.0
 11
74.27765793859227
 21
-0.7800679142159314
 31
0.0
  0
LINE
  5
3AF
  8
BLATTANSICHT_1_GEOMETRIEAN
  6
VOLLINIE
 62
    18
 10
73.99570789931056
 20
-0.7800679142159314
 30
0.0
 11
74.12820138583345
 21
-0.7800679142159314
 31
0.0
  0
LINE
  5
3B0
  8
BLATTANSICHT_1_GEOMETRIEAN
  6
VOLLINIE
 62
    18
 10
73.88034538456924
 20
-0.7800679142159314
 30
0.0
 11
73.99570789931056
 21
-0.7800679142159314
 31
0.0
  0
LINE
  5
3B1
  8
BLATTANSICHT_1_GEOMETRIEAN
  6
VOLLINIE
 62
    18
 10
73.78228196034341
 20
-0.7800679142159314
 30
0.0
 11
73.88034538456924
 21
-0.7800679142159314
 31
0.0
  0
LINE
  5
3B2
  8
BLATTANSICHT_1_GEOMETRIEAN
  6
VOLLINIE
 62
    18
 10
73.70168517197637
 20
-0.7800679142159314
 30
0.0
 11
73.78228196034341
 21
-0.7800679142159314
 31
0.0
  0
LINE
  5
3B3
  8
BLATTANSICHT_1_GEOMETRIEAN
  6
VOLLINIE
 62
    18
 10
73.63872174514101
 20
-0.7800679142159314
 30
0.0
 11
73.70168517197637
 21
-0.7800679142159314
 31
0.0
  0
LINE
  5
3B4
  8
BLATTANSICHT_1_GEOMETRIEAN
  6
VOLLINIE
 62
    18
 10
73.55729841262722
 20
-0.7800679122719367
 30
0.0
 11
73.56636222174005
 21
-0.7800679142159314
 31
0.0
  0
LINE
  5
3B5
  8
BLATTANSICHT_1_GEOMETRIEAN
  6
VOLLINIE
 62
    18
 10
73.59355794426702
 20
-0.7800679142159314
 30
0.0
 11
73.63872174514101
 21
-0.7800679142159314
 31
0.0
  0
LINE
  5
3B6
  8
BLATTANSICHT_1_GEOMETRIEAN
  6
VOLLINIE
 62
    18
 10
73.56636222174005
 20
-0.7800679142159314
 30
0.0
 11
73.59355794426702
 21
-0.7800679142159314
 31
0.0
  0
LINE
  5
3B7
  8
BLATTANSICHT_1_GEOMETRIEAN
  6
VOLLINIE
 62
    18
 10
74.44359162627687
 20
-0.7800679142159314
 30
0.0
 11
74.62518602072302
 21
-0.7800679142159314
 31
0.0
  0
LINE
  5
3B8
  8
BLATTANSICHT_1_GEOMETRIEAN
  6
VOLLINIE
 62
    18
 10
75.50012262087422
 20
-0.7800679142159314
 30
0.0
 11
75.75399754762722
 21
-0.7800679142159314
 31
0.0
  0
LINE
  5
3B9
  8
BLATTANSICHT_1_GEOMETRIEAN
  6
VOLLINIE
 62
    18
 10
73.58383720683463
 20
0.7199320857840659
 30
0.0
 11
73.55729841262722
 21
0.7199320857840659
 31
0.0
  0
LINE
  5
3BA
  8
BLATTANSICHT_1_GEOMETRIEAN
  6
VOLLINIE
 62
    18
 10
73.66326577409745
 20
0.7199320857840659
 30
0.0
 11
73.58383720683463
 21
0.7199320857840659
 31
0.0
  0
LINE
  5
3BB
  8
BLATTANSICHT_1_GEOMETRIEAN
  6
VOLLINIE
 62
    18
 10
73.79502199750875
 20
0.7199320857840659
 30
0.0
 11
73.66326577409745
 21
0.7199320857840659
 31
0.0
  0
LINE
  5
3BC
  8
BLATTANSICHT_1_GEOMETRIEAN
  6
VOLLINIE
 62
    18
 10
74.8212763226272
 20
0.7199320857840659
 30
0.0
 11
74.49312275140429
 21
0.7199320857840659
 31
0.0
  0
LINE
  5
3BD
  8
BLATTANSICHT_1_GEOMETRIEAN
  6
VOLLINIE
 62
    18
 10
74.49312275140429
 20
0.7199320857840659
 30
0.0
 11
74.21142392684352
 21
0.7199320857840659
 31
0.0
  0
LINE
  5
3BE
  8
BLATTANSICHT_1_GEOMETRIEAN
  6
VOLLINIE
 62
    18
 10
73.97817343672224
 20
0.7199320857840659
 30
0.0
 11
73.79502199750875
 21
0.7199320857840659
 31
0.0
  0
LINE
  5
3BF
  8
BLATTANSICHT_1_GEOMETRIEAN
  6
VOLLINIE
 62
    18
 10
74.21142392684352
 20
0.7199320857840659
 30
0.0
 11
73.97817343672224
 21
0.7199320857840659
 31
0.0
  0
LINE
  5
3C0
  8
BLATTANSICHT_1_GEOMETRIEAN
  6
VOLLINIE
 62
    18
 10
73.55729841262722
 20
0.7199320857840659
 30
0.0
 11
73.55729841262722
 21
-0.7800679122719367
 31
0.0
  0
LINE
  5
3C1
  8
BLATTANSICHT_1_GEOMETRIEAN
  6
VOLLINIE
 62
    18
 10
73.55729841262722
 20
-0.7800679142159314
 30
0.0
 11
73.55729841262722
 21
-7.780067915651654
 31
0.0
  0
LINE
  5
3C2
  8
BLATTANSICHT_1_GEOMETRIEAN
  6
VOLLINIE
 62
    18
 10
88.55729841262722
 20
-7.780067915651654
 30
0.0
 11
88.55729841262722
 21
-0.7800679142159314
 31
0.0
  0
LINE
  5
3C3
  8
BLATTANSICHT_1_GEOMETRIEAN
  6
VOLLINIE
 62
    18
 10
73.55729841262722
 20
-11.2501249286353
 30
0.0
 11
73.55729841262722
 21
-11.2767366897091
 31
0.0
  0
LINE
  5
3C4
  8
BLATTANSICHT_1_GEOMETRIEAN
  6
VOLLINIE
 62
    18
 10
73.55729841262722
 20
-11.19710393806071
 30
0.0
 11
73.55729841262722
 21
-11.2501249286353
 31
0.0
  0
LINE
  5
3C5
  8
BLATTANSICHT_1_GEOMETRIEAN
  6
VOLLINIE
 62
    18
 10
73.55729841262722
 20
-11.11807723974382
 30
0.0
 11
73.55729841262722
 21
-11.19710393806071
 31
0.0
  0
LINE
  5
3C6
  8
BLATTANSICHT_1_GEOMETRIEAN
  6
VOLLINIE
 62
    18
 10
73.55729841262722
 20
-11.01364627458425
 30
0.0
 11
73.55729841262722
 21
-11.11807723974382
 31
0.0
  0
LINE
  5
3C7
  8
BLATTANSICHT_1_GEOMETRIEAN
  6
VOLLINIE
 62
    18
 10
73.55729841262722
 20
-10.91912250574861
 30
0.0
 11
73.55729841262722
 21
-11.01364627458425
 31
0.0
  0
LINE
  5
3C8
  8
BLATTANSICHT_1_GEOMETRIEAN
  6
VOLLINIE
 62
    18
 10
73.55729841262722
 20
-10.81115682326807
 30
0.0
 11
73.55729841262722
 21
-10.91912250574861
 31
0.0
  0
LINE
  5
3C9
  8
BLATTANSICHT_1_GEOMETRIEAN
  6
VOLLINIE
 62
    18
 10
73.55729841262722
 20
-10.69021155276905
 30
0.0
 11
73.55729841262722
 21
-10.81115682326807
 31
0.0
  0
LINE
  5
3CA
  8
BLATTANSICHT_1_GEOMETRIEAN
  6
VOLLINIE
 62
    18
 10
73.55729841262722
 20
-10.55680460401231
 30
0.0
 11
73.55729841262722
 21
-10.69021155276905
 31
0.0
  0
LINE
  5
3CB
  8
BLATTANSICHT_1_GEOMETRIEAN
  6
VOLLINIE
 62
    18
 10
73.55729841262722
 20
-10.41150724309063
 30
0.0
 11
73.55729841262722
 21
-10.55680460401231
 31
0.0
  0
LINE
  5
3CC
  8
BLATTANSICHT_1_GEOMETRIEAN
  6
VOLLINIE
 62
    18
 10
73.55729841262722
 20
-10.25494165557686
 30
0.0
 11
73.55729841262722
 21
-10.41150724309063
 31
0.0
  0
LINE
  5
3CD
  8
BLATTANSICHT_1_GEOMETRIEAN
  6
VOLLINIE
 62
    18
 10
73.55729841262722
 20
-10.03816986299294
 30
0.0
 11
73.55729841262722
 21
-10.25494165557686
 31
0.0
  0
LINE
  5
3CE
  8
BLATTANSICHT_1_GEOMETRIEAN
  6
VOLLINIE
 62
    18
 10
73.55729841262722
 20
-9.80541745615155
 30
0.0
 11
73.55729841262722
 21
-10.03816986299294
 31
0.0
  0
LINE
  5
3CF
  8
BLATTANSICHT_1_GEOMETRIEAN
  6
VOLLINIE
 62
    18
 10
73.55729841262722
 20
-9.55833162659478
 30
0.0
 11
73.55729841262722
 21
-9.80541745615155
 31
0.0
  0
LINE
  5
3D0
  8
BLATTANSICHT_1_GEOMETRIEAN
  6
VOLLINIE
 62
    18
 10
73.55729841262722
 20
-9.298661003667196
 30
0.0
 11
73.55729841262722
 21
-9.55833162659478
 31
0.0
  0
LINE
  5
3D1
  8
BLATTANSICHT_1_GEOMETRIEAN
  6
VOLLINIE
 62
    18
 10
73.55729841262722
 20
-9.028243279445203
 30
0.0
 11
73.55729841262722
 21
-9.298661003667196
 31
0.0
  0
LINE
  5
3D2
  8
BLATTANSICHT_1_GEOMETRIEAN
  6
VOLLINIE
 62
    18
 10
73.55729841262722
 20
-8.748992203368484
 30
0.0
 11
73.55729841262722
 21
-9.028243279445203
 31
0.0
  0
LINE
  5
3D3
  8
BLATTANSICHT_1_GEOMETRIEAN
  6
VOLLINIE
 62
    18
 10
73.55729841262722
 20
-8.462884038612462
 30
0.0
 11
73.55729841262722
 21
-8.748992203368484
 31
0.0
  0
LINE
  5
3D4
  8
BLATTANSICHT_1_GEOMETRIEAN
  6
VOLLINIE
 62
    18
 10
73.55729841262722
 20
-8.236909585668046
 30
0.0
 11
73.55729841262722
 21
-8.462884038612462
 31
0.0
  0
LINE
  5
3D5
  8
BLATTANSICHT_1_GEOMETRIEAN
  6
VOLLINIE
 62
    18
 10
73.55729841262722
 20
-8.008978866574463
 30
0.0
 11
73.55729841262722
 21
-8.236909585668046
 31
0.0
  0
LINE
  5
3D6
  8
BLATTANSICHT_1_GEOMETRIEAN
  6
VOLLINIE
 62
    18
 10
73.55729841262722
 20
-7.780067915651654
 30
0.0
 11
73.55729841262722
 21
-8.008978866574463
 31
0.0
  0
LINE
  5
3D7
  8
BLATTANSICHT_1_GEOMETRIEAN
  6
VOLLINIE
 62
    18
 10
88.55729841262722
 20
-7.780067915651654
 30
0.0
 11
73.55729841262722
 21
-7.780067915651654
 31
0.0
  0
LINE
  5
3D8
  8
BLATTANSICHT_1_GEOMETRIEAN
  6
VOLLINIE
 62
    18
 10
88.557298412118
 20
-8.008978866576483
 30
0.0
 11
88.55729841262722
 21
-7.780067915651654
 31
0.0
  0
LINE
  5
3D9
  8
BLATTANSICHT_1_GEOMETRIEAN
  6
VOLLINIE
 62
    18
 10
88.557298412118
 20
-8.23690958567309
 30
0.0
 11
88.557298412118
 21
-8.008978866576483
 31
0.0
  0
LINE
  5
3DA
  8
BLATTANSICHT_1_GEOMETRIEAN
  6
VOLLINIE
 62
    18
 10
88.557298412118
 20
-8.462884038621507
 30
0.0
 11
88.557298412118
 21
-8.23690958567309
 31
0.0
  0
LINE
  5
3DB
  8
BLATTANSICHT_1_GEOMETRIEAN
  6
VOLLINIE
 62
    18
 10
88.557298412118
 20
-8.748992203391088
 30
0.0
 11
88.557298412118
 21
-8.462884038621507
 31
0.0
  0
LINE
  5
3DC
  8
BLATTANSICHT_1_GEOMETRIEAN
  6
VOLLINIE
 62
    18
 10
88.55729841211797
 20
-9.02824327948246
 30
0.0
 11
88.557298412118
 21
-8.748992203391088
 31
0.0
  0
LINE
  5
3DD
  8
BLATTANSICHT_1_GEOMETRIEAN
  6
VOLLINIE
 62
    18
 10
88.55729841211797
 20
-9.298661003719952
 30
0.0
 11
88.55729841211797
 21
-9.02824327948246
 31
0.0
  0
LINE
  5
3DE
  8
BLATTANSICHT_1_GEOMETRIEAN
  6
VOLLINIE
 62
    18
 10
88.55729841211797
 20
-9.558331626663678
 30
0.0
 11
88.55729841211797
 21
-9.298661003719952
 31
0.0
  0
LINE
  5
3DF
  8
BLATTANSICHT_1_GEOMETRIEAN
  6
VOLLINIE
 62
    18
 10
88.55729841211797
 20
-9.805417456236984
 30
0.0
 11
88.55729841211797
 21
-9.558331626663678
 31
0.0
  0
LINE
  5
3E0
  8
BLATTANSICHT_1_GEOMETRIEAN
  6
VOLLINIE
 62
    18
 10
88.55729841211797
 20
-10.03816986309509
 30
0.0
 11
88.55729841211797
 21
-9.805417456236984
 31
0.0
  0
LINE
  5
3E1
  8
BLATTANSICHT_1_GEOMETRIEAN
  6
VOLLINIE
 62
    18
 10
88.55729841211797
 20
-10.25494165569567
 30
0.0
 11
88.55729841211797
 21
-10.03816986309509
 31
0.0
  0
LINE
  5
3E2
  8
BLATTANSICHT_1_GEOMETRIEAN
  6
VOLLINIE
 62
    18
 10
88.55729841211797
 20
-10.41150724322539
 30
0.0
 11
88.55729841211797
 21
-10.25494165569567
 31
0.0
  0
LINE
  5
3E3
  8
BLATTANSICHT_1_GEOMETRIEAN
  6
VOLLINIE
 62
    18
 10
88.55729841211797
 20
-10.55680460416226
 30
0.0
 11
88.55729841211797
 21
-10.41150724322539
 31
0.0
  0
LINE
  5
3E4
  8
BLATTANSICHT_1_GEOMETRIEAN
  6
VOLLINIE
 62
    18
 10
88.55729841211797
 20
-10.69021155293334
 30
0.0
 11
88.55729841211797
 21
-10.55680460416226
 31
0.0
  0
LINE
  5
3E5
  8
BLATTANSICHT_1_GEOMETRIEAN
  6
VOLLINIE
 62
    18
 10
88.55729841211797
 20
-10.81115682344654
 30
0.0
 11
88.55729841211797
 21
-10.69021155293334
 31
0.0
  0
LINE
  5
3E6
  8
BLATTANSICHT_1_GEOMETRIEAN
  6
VOLLINIE
 62
    18
 10
88.55729841211797
 20
-10.91912250593997
 30
0.0
 11
88.55729841211797
 21
-10.81115682344654
 31
0.0
  0
LINE
  5
3E7
  8
BLATTANSICHT_1_GEOMETRIEAN
  6
VOLLINIE
 62
    18
 10
88.55729841211797
 20
-11.01364627478708
 30
0.0
 11
88.55729841211797
 21
-10.91912250593997
 31
0.0
  0
LINE
  5
3E8
  8
BLATTANSICHT_1_GEOMETRIEAN
  6
VOLLINIE
 62
    18
 10
88.55729841211797
 20
-11.11807723996019
 30
0.0
 11
88.55729841211797
 21
-11.01364627478708
 31
0.0
  0
LINE
  5
3E9
  8
BLATTANSICHT_1_GEOMETRIEAN
  6
VOLLINIE
 62
    18
 10
88.55729841211797
 20
-11.19710393828741
 30
0.0
 11
88.55729841211797
 21
-11.11807723996019
 31
0.0
  0
LINE
  5
3EA
  8
BLATTANSICHT_1_GEOMETRIEAN
  6
VOLLINIE
 62
    18
 10
88.55729841211797
 20
-11.25012492886898
 30
0.0
 11
88.55729841211797
 21
-11.19710393828741
 31
0.0
  0
LINE
  5
3EB
  8
BLATTANSICHT_1_GEOMETRIEAN
  6
VOLLINIE
 62
    18
 10
88.55729841211797
 20
-11.27673668994631
 30
0.0
 11
88.55729841211797
 21
-11.25012492886898
 31
0.0
  0
LINE
  5
3EC
  8
BLATTANSICHT_1_GEOMETRIEAN
  6
VOLLINIE
 62
    18
 10
73.55729841262722
 20
-11.2767366897091
 30
0.0
 11
88.55729841211797
 21
-11.27673668994631
 31
0.0
  0
VIEWPORT
  5
61
 67
     1
  8
0
 10
0.0
 20
0.0
 30
0.0
 40
1.0
 41
1.0
 68
     1
 69
     1
1001
ACAD
1000
MVIEW
1002
{
1070
    16
1010
0.0
1020
0.0
1030
0.0
1020
0.0
1030
0.0
1010
0.0
1020
0.0
1030
1.0
1020
0.0
1030
1.0
1040
0.0
1040
1.0
1040
0.0
1040
0.0
1040
50.0
1040
0.0
1040
0.0
1070
     0
1070
   100
1070
     0
1070
     3
1070
     0
1070
     0
1070
     0
1070
     0
1040
0.0
1040
0.0
1040
0.0
1040
0.5
1040
0.5
1040
0.0
1040
0.0
1070
     0
1002
{
1002
}
1002
}
  0
ENDSEC
  0
EOF
