  0
SECTION
  2
HEADER
  9
$ACADVER
  1
AC1009
  9
$DWGCODEPAGE
  3
ansi_1252
  9
$INSBASE
 10
0.0
 20
0.0
 30
0.0
  9
$EXTMIN
 10
-25.54327719958532
 20
-156.4979773370447
 30
-0.0000000000000035
  9
$EXTMAX
 10
174.3295047030131
 20
180.7869791196888
 30
70.91613740293201
  9
$LIMMIN
 10
0.0
 20
0.0
  9
$LIMMAX
 10
12.0
 20
9.0
  9
$ORTHOMODE
 70
     0
  9
$REGENMODE
 70
     1
  9
$FILLMODE
 70
     1
  9
$QTEXTMODE
 70
     0
  9
$MIRRTEXT
 70
     1
  9
$DRAGMODE
 70
     2
  9
$LTSCALE
 40
1.0
  9
$OSMODE
 70
    37
  9
$ATTMODE
 70
     1
  9
$TEXTSIZE
 40
0.2
  9
$TRACEWID
 40
0.05
  9
$TEXTSTYLE
  7
STANDARD
  9
$CLAYER
  8
0
  9
$CELTYPE
  6
BYLAYER
  9
$CECOLOR
 62
   256
  9
$DIMSCALE
 40
1.0
  9
$DIMASZ
 40
0.18
  9
$DIMEXO
 40
0.0625
  9
$DIMDLI
 40
0.38
  9
$DIMRND
 40
0.0
  9
$DIMDLE
 40
0.0
  9
$DIMEXE
 40
0.18
  9
$DIMTP
 40
0.0
  9
$DIMTM
 40
0.0
  9
$DIMTXT
 40
0.18
  9
$DIMCEN
 40
0.09
  9
$DIMTSZ
 40
0.0
  9
$DIMTOL
 70
     0
  9
$DIMLIM
 70
     0
  9
$DIMTIH
 70
     1
  9
$DIMTOH
 70
     1
  9
$DIMSE1
 70
     0
  9
$DIMSE2
 70
     0
  9
$DIMTAD
 70
     0
  9
$DIMZIN
 70
     0
  9
$DIMBLK
  1

  9
$DIMASO
 70
     1
  9
$DIMSHO
 70
     1
  9
$DIMPOST
  1

  9
$DIMAPOST
  1

  9
$DIMALT
 70
     0
  9
$DIMALTD
 70
     2
  9
$DIMALTF
 40
25.4
  9
$DIMLFAC
 40
1.0
  9
$DIMTOFL
 70
     0
  9
$DIMTVP
 40
0.0
  9
$DIMTIX
 70
     0
  9
$DIMSOXD
 70
     0
  9
$DIMSAH
 70
     0
  9
$DIMBLK1
  1

  9
$DIMBLK2
  1

  9
$DIMSTYLE
  2
STANDARD
  9
$DIMCLRD
 70
     0
  9
$DIMCLRE
 70
     0
  9
$DIMCLRT
 70
     0
  9
$DIMTFAC
 40
1.0
  9
$DIMGAP
 40
0.09
  9
$LUNITS
 70
     2
  9
$LUPREC
 70
     4
  9
$SKETCHINC
 40
0.1
  9
$FILLETRAD
 40
0.5
  9
$AUNITS
 70
     0
  9
$AUPREC
 70
     0
  9
$MENU
  1
.
  9
$ELEVATION
 40
0.0
  9
$PELEVATION
 40
0.0
  9
$THICKNESS
 40
0.0
  9
$LIMCHECK
 70
     0
  9
$CHAMFERA
 40
0.5
  9
$CHAMFERB
 40
0.5
  9
$SKPOLY
 70
     0
  9
$TDCREATE
 40
2305814.821608796
  9
$TDUPDATE
 40
2305814.821608808
  9
$TDINDWG
 40
0.0000000116
  9
$TDUSRTIMER
 40
0.0000000116
  9
$USRTIMER
 70
     1
  9
$ANGBASE
 50
0.0
  9
$ANGDIR
 70
     0
  9
$PDMODE
 70
     0
  9
$PDSIZE
 40
0.0
  9
$PLINEWID
 40
0.0
  9
$COORDS
 70
     1
  9
$SPLFRAME
 70
     0
  9
$SPLINETYPE
 70
     6
  9
$SPLINESEGS
 70
     8
  9
$ATTDIA
 70
     0
  9
$ATTREQ
 70
     1
  9
$HANDLING
 70
     1
  9
$HANDSEED
  5
495
  9
$SURFTAB1
 70
     6
  9
$SURFTAB2
 70
     6
  9
$SURFTYPE
 70
     6
  9
$SURFU
 70
     6
  9
$SURFV
 70
     6
  9
$UCSNAME
  2

  9
$UCSORG
 10
0.0
 20
0.0
 30
0.0
  9
$UCSXDIR
 10
1.0
 20
0.0
 30
0.0
  9
$UCSYDIR
 10
0.0
 20
1.0
 30
0.0
  9
$PUCSNAME
  2

  9
$PUCSORG
 10
0.0
 20
0.0
 30
0.0
  9
$PUCSXDIR
 10
1.0
 20
0.0
 30
0.0
  9
$PUCSYDIR
 10
0.0
 20
1.0
 30
0.0
  9
$USERI1
 70
     0
  9
$USERI2
 70
     0
  9
$USERI3
 70
     0
  9
$USERI4
 70
     0
  9
$USERI5
 70
     0
  9
$USERR1
 40
0.0
  9
$USERR2
 40
0.0
  9
$USERR3
 40
0.0
  9
$USERR4
 40
0.0
  9
$USERR5
 40
0.0
  9
$WORLDVIEW
 70
     1
  9
$SHADEDGE
 70
     3
  9
$SHADEDIF
 70
    70
  9
$TILEMODE
 70
     1
  9
$MAXACTVP
 70
    64
  9
$PLIMCHECK
 70
     0
  9
$PEXTMIN
 10
1.000000000000000E+20
 20
1.000000000000000E+20
 30
1.000000000000000E+20
  9
$PEXTMAX
 10
-1.000000000000000E+20
 20
-1.000000000000000E+20
 30
-1.000000000000000E+20
  9
$PLIMMIN
 10
0.0
 20
0.0
  9
$PLIMMAX
 10
12.0
 20
9.0
  9
$UNITMODE
 70
     0
  9
$VISRETAIN
 70
     1
  9
$PLINEGEN
 70
     0
  9
$PSLTSCALE
 70
     1
  0
ENDSEC
  0
SECTION
  2
TABLES
  0
TABLE
  2
VPORT
 70
     1
  0
VPORT
  2
*ACTIVE
 70
     0
 10
0.0
 20
0.0
 11
1.0
 21
1.0
 12
0.0
 22
0.0
 13
0.0
 23
0.0
 14
0.5
 24
0.5
 15
0.5
 25
0.5
 16
0.0
 26
0.0
 36
1.0
 17
36.77871751621251
 27
1.058667651916551
 37
0.0
 40
162.5658455571625
 41
0.7820638387140357
 42
50.0
 43
0.0
 44
0.0
 50
0.0
 51
0.0
 71
     0
 72
   100
 73
     1
 74
     3
 75
     0
 76
     0
 77
     0
 78
     0
  0
ENDTAB
  0
TABLE
  2
LTYPE
 70
    12
  0
LTYPE
  2
CONTINUOUS
 70
     0
  3
Solid line
 72
    65
 73
     0
 40
0.0
  0
LTYPE
  2
VOLLINIE
 70
     0
  3
____________________
 72
    65
 73
     0
 40
0.0
  0
LTYPE
  2
ZWEISTRICHPUNKT
 70
     0
  3
__ __ . __ __ . __ 
 72
    65
 73
     6
 40
22.225
 49
0.25
 49
-0.125
 49
0.25
 49
-0.125
 49
0.0
 49
-0.125
  0
LTYPE
  2
STRICHPUNKT_LANG
 70
     0
  3
___ _ ___ _ ___ _ _
 72
    65
 73
     4
 40
28.575
 49
0.75
 49
-0.125
 49
0.125
 49
-0.125
  0
LTYPE
  2
STRICHPUNKT
 70
     0
  3
_._._._._._._._._._
 72
    65
 73
     4
 40
12.7
 49
0.25
 49
-0.125
 49
0.0
 49
-0.125
  0
LTYPE
  2
STRICHLINIE_LANG
 70
     0
  3
_ _ _ _ _ _ _ _ _ _
 72
    65
 73
     2
 40
9.524999999999999
 49
0.25
 49
-0.125
  0
LTYPE
  2
STRICHZWEIPKT__KURZ
 70
     0
  3
__..__..__..__..__.
 72
    65
 73
     6
 40
15.875
 49
0.25
 49
-0.125
 49
0.0
 49
-0.125
 49
0.0
 49
-0.125
  0
LTYPE
  2
GEPUNKTET
 70
     0
  3
...................
 72
    65
 73
     2
 40
3.175
 49
0.0
 49
-0.125
  0
LTYPE
  2
STRICHLINIE
 70
     0
  3
__ __ __ __ __ __ _
 72
    65
 73
     2
 40
4.762499999999999
 49
0.125
 49
-0.0625
  0
LTYPE
  2
STRICHZWEIPUNKT
 70
     0
  3
___ _ _ ___ _ _ ___
 72
    65
 73
     6
 40
31.75
 49
0.625
 49
-0.125
 49
0.125
 49
-0.125
 49
0.125
 49
-0.125
  0
LTYPE
  2
STRICHZWEIPKT__LANG
 70
     0
  3
________ _ _ ______
 72
    65
 73
     6
 40
37.2745
 49
1.0
 49
-0.0725
 49
0.125
 49
-0.0725
 49
0.125
 49
-0.0725
  0
LTYPE
  2
STRICHLINIE_KURZ
 70
     0
  3
_ _ _ _ _ _ _ _ _ _
 72
    65
 73
     2
 40
3.682999999999999
 49
0.0725
 49
-0.0725
  0
ENDTAB
  0
TABLE
  2
LAYER
 70
     5
  0
LAYER
  2
0
 70
     0
 62
     7
  6
CONTINUOUS
  0
LAYER
  2
IGES-IMPORT_CS_CT-0120-7
 70
     0
 62
    -7
  6
CONTINUOUS
  0
LAYER
  2
BLATTANSICHT_1
 70
     0
 62
     7
  6
CONTINUOUS
  0
LAYER
  2
BLATTANSICHT_1_SCHRIFTKOPF
 70
     0
 62
     7
  6
CONTINUOUS
  0
LAYER
  2
BLATTANSICHT_1_GEOMETRIEAN
 70
     0
 62
     7
  6
CONTINUOUS
  0
ENDTAB
  0
TABLE
  2
STYLE
 70
     2
  0
STYLE
  2
STANDARD
 70
     0
 40
0.0
 41
1.0
 50
0.0
 71
     0
 42
0.2
  3
txt
  4

  0
STYLE
  2
TEXT2194
 70
     0
 40
0.2
 41
1.0
 50
0.0
 71
     0
 42
0.2
  3
arial.ttf
  4

  0
ENDTAB
  0
TABLE
  2
VIEW
 70
     0
  0
ENDTAB
  0
TABLE
  2
UCS
 70
     0
  0
ENDTAB
  0
TABLE
  2
APPID
 70
     2
  0
APPID
  2
ACAD
 70
     0
  0
APPID
  2
PUNCH__SOFTWARE_VIACAD
 70
     0
  0
ENDTAB
  0
TABLE
  2
DIMSTYLE
 70
     1
  0
DIMSTYLE
  2
STANDARD
 70
     0
  3

  4

  5

  6

  7

 40
1.0
 41
0.18
 42
0.0625
 43
0.38
 44
0.18
 45
0.0
 46
0.0
 47
0.0
 48
0.0
140
0.18
141
0.09
142
0.0
143
25.4
144
1.0
145
0.0
146
1.0
147
0.09
 71
     0
 72
     0
 73
     1
 74
     1
 75
     0
 76
     0
 77
     0
 78
     0
170
     0
171
     2
172
     0
173
     0
174
     0
175
     0
176
     0
177
     0
178
     0
  0
ENDTAB
  0
ENDSEC
  0
SECTION
  2
BLOCKS
  0
BLOCK
  8
0
  2
$MODEL_SPACE
 70
     0
 10
0.0
 20
0.0
 30
0.0
  3
$MODEL_SPACE
  1

  0
ENDBLK
  5
21
  8
0
  0
BLOCK
 67
     1
  8
0
  2
$PAPER_SPACE
 70
     0
 10
0.0
 20
0.0
 30
0.0
  3
$PAPER_SPACE
  1

  0
ENDBLK
  5
1D
 67
     1
  8
0
  0
ENDSEC
  0
SECTION
  2
ENTITIES
  0
TEXT
  5
6F
  8
BLATTANSICHT_1_SCHRIFTKOPF
  6
VOLLINIE
 62
    18
 10
6.666666666639999
 20
79.39791666485999
 30
0.0
 40
1.327326416969299
  1
C
  7
TEXT2194
  0
LINE
  5
70
  8
BLATTANSICHT_1_GEOMETRIEAN
  6
VOLLINIE
 62
    18
 10
-0.347124778584365
 20
0.0
 30
0.0
 11
-0.1620407485329722
 21
0.0
 31
0.0
  0
LINE
  5
71
  8
BLATTANSICHT_1_GEOMETRIEAN
  6
VOLLINIE
 62
    18
 10
-0.1620407485329722
 20
0.0
 30
0.0
 11
0.0
 21
0.0
 31
0.0
  0
LINE
  5
72
  8
BLATTANSICHT_1_GEOMETRIEAN
  6
VOLLINIE
 62
    18
 10
-0.5544595318921899
 20
0.0
 30
0.0
 11
-0.347124778584365
 21
0.0
 31
0.0
  0
LINE
  5
73
  8
BLATTANSICHT_1_GEOMETRIEAN
  6
VOLLINIE
 62
    18
 10
-11.54327719958533
 20
1.999999999987295
 30
0.0
 11
-11.54327719958533
 21
-0.0000000000127011
 31
0.0
  0
LINE
  5
74
  8
BLATTANSICHT_1_GEOMETRIEAN
  6
VOLLINIE
 62
    18
 10
-11.53043074020569
 20
2.000000000833804
 30
0.0
 11
-11.54327719958533
 21
1.999999999987295
 31
0.0
  0
LINE
  5
75
  8
BLATTANSICHT_1_GEOMETRIEAN
  6
VOLLINIE
 62
    18
 10
-11.4919463700026
 20
2.000000000833804
 30
0.0
 11
-11.53043074020569
 21
2.000000000833804
 31
0.0
  0
LINE
  5
76
  8
BLATTANSICHT_1_GEOMETRIEAN
  6
VOLLINIE
 62
    18
 10
-11.42798888590259
 20
2.000000000833804
 30
0.0
 11
-11.4919463700026
 21
2.000000000833804
 31
0.0
  0
LINE
  5
77
  8
BLATTANSICHT_1_GEOMETRIEAN
  6
VOLLINIE
 62
    18
 10
-11.54327719958533
 20
-0.0000000000127011
 30
0.0
 11
-11.53043073925986
 21
0.0
 31
0.0
  0
LINE
  5
78
  8
BLATTANSICHT_1_GEOMETRIEAN
  6
VOLLINIE
 62
    18
 10
-11.53043073925986
 20
0.0
 30
0.0
 11
-11.49194636906886
 21
0.0
 31
0.0
  0
LINE
  5
79
  8
BLATTANSICHT_1_GEOMETRIEAN
  6
VOLLINIE
 62
    18
 10
-11.49194636906886
 20
0.0
 30
0.0
 11
-11.42798888498887
 21
0.0
 31
0.0
  0
LINE
  5
7A
  8
BLATTANSICHT_1_GEOMETRIEAN
  6
VOLLINIE
 62
    18
 10
-11.33883216194658
 20
2.000000000833804
 30
0.0
 11
-11.42798888590259
 21
2.000000000833804
 31
0.0
  0
LINE
  5
7B
  8
BLATTANSICHT_1_GEOMETRIEAN
  6
VOLLINIE
 62
    18
 10
-11.22485798178177
 20
2.000000000833804
 30
0.0
 11
-11.33883216194658
 21
2.000000000833804
 31
0.0
  0
LINE
  5
7C
  8
BLATTANSICHT_1_GEOMETRIEAN
  6
VOLLINIE
 62
    18
 10
-11.08655440034753
 20
2.000000000833804
 30
0.0
 11
-11.22485798178177
 21
2.000000000833804
 31
0.0
  0
LINE
  5
7D
  8
BLATTANSICHT_1_GEOMETRIEAN
  6
VOLLINIE
 62
    18
 10
-11.42798888498887
 20
0.0
 30
0.0
 11
-11.33883216106005
 21
0.0
 31
0.0
  0
LINE
  5
7E
  8
BLATTANSICHT_1_GEOMETRIEAN
  6
VOLLINIE
 62
    18
 10
-11.22485798092967
 20
0.0
 30
0.0
 11
-11.08655439953679
 21
0.0
 31
0.0
  0
LINE
  5
7F
  8
BLATTANSICHT_1_GEOMETRIEAN
  6
VOLLINIE
 62
    18
 10
-11.33883216106005
 20
0.0
 30
0.0
 11
-11.22485798092967
 21
0.0
 31
0.0
  0
LINE
  5
80
  8
BLATTANSICHT_1_GEOMETRIEAN
  6
VOLLINIE
 62
    18
 10
-10.53209486870679
 20
2.000000000833804
 30
0.0
 11
-10.73942962192208
 21
2.000000000833804
 31
0.0
  0
LINE
  5
81
  8
BLATTANSICHT_1_GEOMETRIEAN
  6
VOLLINIE
 62
    18
 10
-10.92451365188942
 20
2.000000000833804
 30
0.0
 11
-11.08655440034753
 21
2.000000000833804
 31
0.0
  0
LINE
  5
82
  8
BLATTANSICHT_1_GEOMETRIEAN
  6
VOLLINIE
 62
    18
 10
-10.73942962192208
 20
2.000000000833804
 30
0.0
 11
-10.92451365188942
 21
2.000000000833804
 31
0.0
  0
LINE
  5
83
  8
BLATTANSICHT_1_GEOMETRIEAN
  6
VOLLINIE
 62
    18
 10
-10.05431603535114
 20
2.000000000833804
 30
0.0
 11
-10.30339723454745
 21
2.000000000833804
 31
0.0
  0
LINE
  5
84
  8
BLATTANSICHT_1_GEOMETRIEAN
  6
VOLLINIE
 62
    18
 10
-9.785917875066282
 20
2.000000000833804
 30
0.0
 11
-10.05431603535114
 21
2.000000000833804
 31
0.0
  0
LINE
  5
85
  8
BLATTANSICHT_1_GEOMETRIEAN
  6
VOLLINIE
 62
    18
 10
-10.30339723454745
 20
2.000000000833804
 30
0.0
 11
-10.53209486870679
 21
2.000000000833804
 31
0.0
  0
LINE
  5
86
  8
BLATTANSICHT_1_GEOMETRIEAN
  6
VOLLINIE
 62
    18
 10
-6.841914880877705
 20
2.000000000833804
 30
0.0
 11
-7.347511992960899
 21
2.000000000833804
 31
0.0
  0
LINE
  5
87
  8
BLATTANSICHT_1_GEOMETRIEAN
  6
VOLLINIE
 62
    18
 10
-6.326434351963218
 20
2.000000000833804
 30
0.0
 11
-6.841914880877705
 21
2.000000000833804
 31
0.0
  0
LINE
  5
88
  8
BLATTANSICHT_1_GEOMETRIEAN
  6
VOLLINIE
 62
    18
 10
-5.804993524276297
 20
2.000000000833804
 30
0.0
 11
-6.326434351963218
 21
2.000000000833804
 31
0.0
  0
LINE
  5
89
  8
BLATTANSICHT_1_GEOMETRIEAN
  6
VOLLINIE
 62
    18
 10
-5.281560877348144
 20
2.000000000833804
 30
0.0
 11
-5.804993524276297
 21
2.000000000833804
 31
0.0
  0
LINE
  5
8A
  8
BLATTANSICHT_1_GEOMETRIEAN
  6
VOLLINIE
 62
    18
 10
-4.760120049657004
 20
2.000000000833804
 30
0.0
 11
-5.281560877348144
 21
2.000000000833804
 31
0.0
  0
LINE
  5
8B
  8
BLATTANSICHT_1_GEOMETRIEAN
  6
VOLLINIE
 62
    18
 10
-4.244639520734113
 20
2.000000000833804
 30
0.0
 11
-4.760120049657004
 21
2.000000000833804
 31
0.0
  0
LINE
  5
8C
  8
BLATTANSICHT_1_GEOMETRIEAN
  6
VOLLINIE
 62
    18
 10
-3.7390424086384
 20
2.000000000833804
 30
0.0
 11
-4.244639520734113
 21
2.000000000833804
 31
0.0
  0
LINE
  5
8D
  8
BLATTANSICHT_1_GEOMETRIEAN
  6
VOLLINIE
 62
    18
 10
-3.247176612659387
 20
2.000000000833804
 30
0.0
 11
-3.7390424086384
 21
2.000000000833804
 31
0.0
  0
LINE
  5
8E
  8
BLATTANSICHT_1_GEOMETRIEAN
  6
VOLLINIE
 62
    18
 10
-7.347511992960899
 20
2.000000000833804
 30
0.0
 11
-7.839377788923375
 21
2.000000000833804
 31
0.0
  0
LINE
  5
8F
  8
BLATTANSICHT_1_GEOMETRIEAN
  6
VOLLINIE
 62
    18
 10
-2.889545061851208
 20
2.000000000833804
 30
0.0
 11
-3.247176612659387
 21
2.000000000833804
 31
0.0
  0
LINE
  5
90
  8
BLATTANSICHT_1_GEOMETRIEAN
  6
VOLLINIE
 62
    18
 10
-2.54327719969504
 20
2.000000000833804
 30
0.0
 11
-2.889545061851208
 21
2.000000000833804
 31
0.0
  0
LINE
  5
91
  8
BLATTANSICHT_1_GEOMETRIEAN
  6
VOLLINIE
 62
    18
 10
-2.20985579836608
 20
2.000000000833804
 30
0.0
 11
-2.54327719969504
 21
2.000000000833804
 31
0.0
  0
LINE
  5
92
  8
BLATTANSICHT_1_GEOMETRIEAN
  6
VOLLINIE
 62
    18
 10
-0.1620407492978825
 20
2.000000000833804
 30
0.0
 11
-0.3471247792977714
 21
2.000000000833804
 31
0.0
  0
LINE
  5
93
  8
BLATTANSICHT_1_GEOMETRIEAN
  6
VOLLINIE
 62
    18
 10
-0.0000000008107855
 20
2.000000000833804
 30
0.0
 11
-0.1620407492978825
 21
2.000000000833804
 31
0.0
  0
LINE
  5
94
  8
BLATTANSICHT_1_GEOMETRIEAN
  6
VOLLINIE
 62
    18
 10
-0.3471247792977714
 20
2.000000000833804
 30
0.0
 11
-0.5544595325489037
 21
2.000000000833804
 31
0.0
  0
LINE
  5
95
  8
BLATTANSICHT_1_GEOMETRIEAN
  6
VOLLINIE
 62
    18
 10
0.138303580649607
 20
2.000000000833804
 30
0.0
 11
-0.0000000008107855
 21
2.000000000833804
 31
0.0
  0
LINE
  5
96
  8
BLATTANSICHT_1_GEOMETRIEAN
  6
VOLLINIE
 62
    18
 10
0.2522777608361504
 20
2.000000000833804
 30
0.0
 11
0.138303580649607
 21
2.000000000833804
 31
0.0
  0
LINE
  5
97
  8
BLATTANSICHT_1_GEOMETRIEAN
  6
VOLLINIE
 62
    18
 10
0.3414344848093246
 20
2.000000000833804
 30
0.0
 11
0.2522777608361504
 21
2.000000000833804
 31
0.0
  0
LINE
  5
98
  8
BLATTANSICHT_1_GEOMETRIEAN
  6
VOLLINIE
 62
    18
 10
0.4053919688751237
 20
2.000000000833804
 30
0.0
 11
0.3414344848093246
 21
2.000000000833804
 31
0.0
  0
LINE
  5
99
  8
BLATTANSICHT_1_GEOMETRIEAN
  6
VOLLINIE
 62
    18
 10
0.4438763390857485
 20
2.000000000833804
 30
0.0
 11
0.4053919688751237
 21
2.000000000833804
 31
0.0
  0
LINE
  5
9A
  8
BLATTANSICHT_1_GEOMETRIEAN
  6
VOLLINIE
 62
    18
 10
0.4567228004146626
 20
1.999999999987295
 30
0.0
 11
0.4438763390857485
 21
2.000000000833804
 31
0.0
  0
LINE
  5
9B
  8
BLATTANSICHT_1_GEOMETRIEAN
  6
VOLLINIE
 62
    18
 10
0.0
 20
0.0
 30
0.0
 11
0.1383035815017332
 21
0.0
 31
0.0
  0
LINE
  5
9C
  8
BLATTANSICHT_1_GEOMETRIEAN
  6
VOLLINIE
 62
    18
 10
0.1383035815017332
 20
0.0
 30
0.0
 11
0.2522777617226915
 21
0.0
 31
0.0
  0
LINE
  5
9D
  8
BLATTANSICHT_1_GEOMETRIEAN
  6
VOLLINIE
 62
    18
 10
0.2522777617226915
 20
0.0
 30
0.0
 11
0.3414344857230614
 21
0.0
 31
0.0
  0
LINE
  5
9E
  8
BLATTANSICHT_1_GEOMETRIEAN
  6
VOLLINIE
 62
    18
 10
0.3414344857230614
 20
0.0
 30
0.0
 11
0.4053919698088824
 21
0.0
 31
0.0
  0
LINE
  5
9F
  8
BLATTANSICHT_1_GEOMETRIEAN
  6
VOLLINIE
 62
    18
 10
0.4053919698088824
 20
0.0
 30
0.0
 11
0.4438763400315765
 21
0.0
 31
0.0
  0
LINE
  5
A0
  8
BLATTANSICHT_1_GEOMETRIEAN
  6
VOLLINIE
 62
    18
 10
0.4438763400315765
 20
0.0
 30
0.0
 11
0.4567228004146626
 21
-0.0000000000127011
 31
0.0
  0
LINE
  5
A1
  8
BLATTANSICHT_1_GEOMETRIEAN
  6
VOLLINIE
 62
    18
 10
0.4567228004146626
 20
-0.0000000000127011
 30
0.0
 11
0.4567228004146626
 21
1.999999999987295
 31
0.0
  0
LINE
  5
A2
  8
BLATTANSICHT_1_GEOMETRIEAN
  6
VOLLINIE
 62
    18
 10
-0.7831571630600376
 20
0.0
 30
0.0
 11
-0.5544595318921899
 21
0.0
 31
0.0
  0
LINE
  5
A3
  8
BLATTANSICHT_1_GEOMETRIEAN
  6
VOLLINIE
 62
    18
 10
-1.032238358757862
 20
0.0
 30
0.0
 11
-0.7831571630600376
 21
0.0
 31
0.0
  0
LINE
  5
A4
  8
BLATTANSICHT_1_GEOMETRIEAN
  6
VOLLINIE
 62
    18
 10
-1.300636515079294
 20
0.0
 30
0.0
 11
-1.032238358757862
 21
0.0
 31
0.0
  0
LINE
  5
A5
  8
BLATTANSICHT_1_GEOMETRIEAN
  6
VOLLINIE
 62
    18
 10
-0.5544595325489037
 20
2.000000000833804
 30
0.0
 11
-0.783157163659461
 21
2.000000000833804
 31
0.0
  0
LINE
  5
A6
  8
BLATTANSICHT_1_GEOMETRIEAN
  6
VOLLINIE
 62
    18
 10
-0.783157163659461
 20
2.000000000833804
 30
0.0
 11
-1.032238359296532
 21
2.000000000833804
 31
0.0
  0
LINE
  5
A7
  8
BLATTANSICHT_1_GEOMETRIEAN
  6
VOLLINIE
 62
    18
 10
-1.032238359296532
 20
2.000000000833804
 30
0.0
 11
-1.300636515554255
 21
2.000000000833804
 31
0.0
  0
LINE
  5
A8
  8
BLATTANSICHT_1_GEOMETRIEAN
  6
VOLLINIE
 62
    18
 10
-1.587202309814068
 20
0.0
 30
0.0
 11
-1.300636515079294
 21
0.0
 31
0.0
  0
LINE
  5
A9
  8
BLATTANSICHT_1_GEOMETRIEAN
  6
VOLLINIE
 62
    18
 10
-1.890708624350858
 20
0.0
 30
0.0
 11
-1.587202309814068
 21
0.0
 31
0.0
  0
LINE
  5
AA
  8
BLATTANSICHT_1_GEOMETRIEAN
  6
VOLLINIE
 62
    18
 10
-2.209855798072871
 20
0.0
 30
0.0
 11
-1.890708624350858
 21
0.0
 31
0.0
  0
LINE
  5
AB
  8
BLATTANSICHT_1_GEOMETRIEAN
  6
VOLLINIE
 62
    18
 10
-1.300636515554255
 20
2.000000000833804
 30
0.0
 11
-1.58720231022937
 21
2.000000000833804
 31
0.0
  0
LINE
  5
AC
  8
BLATTANSICHT_1_GEOMETRIEAN
  6
VOLLINIE
 62
    18
 10
-1.58720231022937
 20
2.000000000833804
 30
0.0
 11
-1.890708624705406
 21
2.000000000833804
 31
0.0
  0
LINE
  5
AD
  8
BLATTANSICHT_1_GEOMETRIEAN
  6
VOLLINIE
 62
    18
 10
-1.890708624705406
 20
2.000000000833804
 30
0.0
 11
-2.20985579836608
 21
2.000000000833804
 31
0.0
  0
LINE
  5
AE
  8
BLATTANSICHT_1_GEOMETRIEAN
  6
VOLLINIE
 62
    18
 10
-2.543277199454463
 20
0.0
 30
0.0
 11
-2.209855798072871
 21
0.0
 31
0.0
  0
LINE
  5
AF
  8
BLATTANSICHT_1_GEOMETRIEAN
  6
VOLLINIE
 62
    18
 10
-2.889545061662147
 20
0.0
 30
0.0
 11
-2.543277199454463
 21
0.0
 31
0.0
  0
LINE
  5
B0
  8
BLATTANSICHT_1_GEOMETRIEAN
  6
VOLLINIE
 62
    18
 10
-3.247176612520272
 20
0.0
 30
0.0
 11
-2.889545061662147
 21
0.0
 31
0.0
  0
LINE
  5
B1
  8
BLATTANSICHT_1_GEOMETRIEAN
  6
VOLLINIE
 62
    18
 10
-4.760120049577199
 20
0.0
 30
0.0
 11
-4.244639520640998
 21
0.0
 31
0.0
  0
LINE
  5
B2
  8
BLATTANSICHT_1_GEOMETRIEAN
  6
VOLLINIE
 62
    18
 10
-4.244639520640998
 20
0.0
 30
0.0
 11
-3.739042408525465
 21
0.0
 31
0.0
  0
LINE
  5
B3
  8
BLATTANSICHT_1_GEOMETRIEAN
  6
VOLLINIE
 62
    18
 10
-5.281560877275005
 20
0.0
 30
0.0
 11
-4.760120049577199
 21
0.0
 31
0.0
  0
LINE
  5
B4
  8
BLATTANSICHT_1_GEOMETRIEAN
  6
VOLLINIE
 62
    18
 10
-7.347511992847998
 20
0.0
 30
0.0
 11
-6.841914880784612
 21
0.0
 31
0.0
  0
LINE
  5
B5
  8
BLATTANSICHT_1_GEOMETRIEAN
  6
VOLLINIE
 62
    18
 10
-6.841914880784612
 20
0.0
 30
0.0
 11
-6.326434351883413
 21
0.0
 31
0.0
  0
LINE
  5
B6
  8
BLATTANSICHT_1_GEOMETRIEAN
  6
VOLLINIE
 62
    18
 10
-7.839377788784283
 20
0.0
 30
0.0
 11
-7.347511992847998
 21
0.0
 31
0.0
  0
LINE
  5
B7
  8
BLATTANSICHT_1_GEOMETRIEAN
  6
VOLLINIE
 62
    18
 10
-3.739042408525465
 20
0.0
 30
0.0
 11
-3.247176612520272
 21
0.0
 31
0.0
  0
LINE
  5
B8
  8
BLATTANSICHT_1_GEOMETRIEAN
  6
VOLLINIE
 62
    18
 10
-5.804993524203159
 20
0.0
 30
0.0
 11
-5.281560877275005
 21
0.0
 31
0.0
  0
LINE
  5
B9
  8
BLATTANSICHT_1_GEOMETRIEAN
  6
VOLLINIE
 62
    18
 10
-6.326434351883413
 20
0.0
 30
0.0
 11
-5.804993524203159
 21
0.0
 31
0.0
  0
LINE
  5
BA
  8
BLATTANSICHT_1_GEOMETRIEAN
  6
VOLLINIE
 62
    18
 10
-8.197009339510954
 20
0.0
 30
0.0
 11
-7.839377788784283
 21
0.0
 31
0.0
  0
LINE
  5
BB
  8
BLATTANSICHT_1_GEOMETRIEAN
  6
VOLLINIE
 62
    18
 10
-8.543277201583086
 20
0.0
 30
0.0
 11
-8.197009339510954
 21
0.0
 31
0.0
  0
LINE
  5
BC
  8
BLATTANSICHT_1_GEOMETRIEAN
  6
VOLLINIE
 62
    18
 10
-8.876698602826151
 20
0.0
 30
0.0
 11
-8.543277201583086
 21
0.0
 31
0.0
  0
LINE
  5
BD
  8
BLATTANSICHT_1_GEOMETRIEAN
  6
VOLLINIE
 62
    18
 10
-7.839377788923375
 20
2.000000000833804
 30
0.0
 11
-8.197009339699981
 21
2.000000000833804
 31
0.0
  0
LINE
  5
BE
  8
BLATTANSICHT_1_GEOMETRIEAN
  6
VOLLINIE
 62
    18
 10
-8.197009339699981
 20
2.000000000833804
 30
0.0
 11
-8.543277201823619
 21
2.000000000833804
 31
0.0
  0
LINE
  5
BF
  8
BLATTANSICHT_1_GEOMETRIEAN
  6
VOLLINIE
 62
    18
 10
-8.543277201823619
 20
2.000000000833804
 30
0.0
 11
-8.876698603119314
 21
2.000000000833804
 31
0.0
  0
LINE
  5
C0
  8
BLATTANSICHT_1_GEOMETRIEAN
  6
VOLLINIE
 62
    18
 10
-9.195845772366312
 20
0.0
 30
0.0
 11
-8.876698602826151
 21
0.0
 31
0.0
  0
LINE
  5
C1
  8
BLATTANSICHT_1_GEOMETRIEAN
  6
VOLLINIE
 62
    18
 10
-9.499352083143567
 20
0.0
 30
0.0
 11
-9.195845772366312
 21
0.0
 31
0.0
  0
LINE
  5
C2
  8
BLATTANSICHT_1_GEOMETRIEAN
  6
VOLLINIE
 62
    18
 10
-9.785917874591366
 20
0.0
 30
0.0
 11
-9.499352083143567
 21
0.0
 31
0.0
  0
LINE
  5
C3
  8
BLATTANSICHT_1_GEOMETRIEAN
  6
VOLLINIE
 62
    18
 10
-8.876698603119314
 20
2.000000000833804
 30
0.0
 11
-9.195845772720826
 21
2.000000000833804
 31
0.0
  0
LINE
  5
C4
  8
BLATTANSICHT_1_GEOMETRIEAN
  6
VOLLINIE
 62
    18
 10
-9.499352083558824
 20
2.000000000833804
 30
0.0
 11
-9.785917875066282
 21
2.000000000833804
 31
0.0
  0
LINE
  5
C5
  8
BLATTANSICHT_1_GEOMETRIEAN
  6
VOLLINIE
 62
    18
 10
-9.195845772720826
 20
2.000000000833804
 30
0.0
 11
-9.499352083558824
 21
2.000000000833804
 31
0.0
  0
LINE
  5
C6
  8
BLATTANSICHT_1_GEOMETRIEAN
  6
VOLLINIE
 62
    18
 10
-11.08655439953679
 20
0.0
 30
0.0
 11
-10.92451365112455
 21
0.0
 31
0.0
  0
LINE
  5
C7
  8
BLATTANSICHT_1_GEOMETRIEAN
  6
VOLLINIE
 62
    18
 10
-10.92451365112455
 20
0.0
 30
0.0
 11
-10.73942962120872
 21
0.0
 31
0.0
  0
LINE
  5
C8
  8
BLATTANSICHT_1_GEOMETRIEAN
  6
VOLLINIE
 62
    18
 10
-10.73942962120872
 20
0.0
 30
0.0
 11
-10.53209486805012
 21
0.0
 31
0.0
  0
LINE
  5
C9
  8
BLATTANSICHT_1_GEOMETRIEAN
  6
VOLLINIE
 62
    18
 10
-10.53209486805012
 20
0.0
 30
0.0
 11
-10.30339723394807
 21
0.0
 31
0.0
  0
LINE
  5
CA
  8
BLATTANSICHT_1_GEOMETRIEAN
  6
VOLLINIE
 62
    18
 10
-10.05431603481252
 20
0.0
 30
0.0
 11
-9.785917874591366
 21
0.0
 31
0.0
  0
LINE
  5
CB
  8
BLATTANSICHT_1_GEOMETRIEAN
  6
VOLLINIE
 62
    18
 10
-10.30339723394807
 20
0.0
 30
0.0
 11
-10.05431603481252
 21
0.0
 31
0.0
  0
LINE
  5
CC
  8
BLATTANSICHT_1_GEOMETRIEAN
  6
VOLLINIE
 62
    18
 10
-22.60080395822284
 20
0.2781389889960372
 30
0.0
 11
-22.26475922596793
 21
0.168951436507059
 31
0.0
  0
LINE
  5
CD
  8
BLATTANSICHT_1_GEOMETRIEAN
  6
VOLLINIE
 62
    18
 10
-22.92724602008928
 20
0.4133557185053709
 30
0.0
 11
-22.60080395822284
 21
0.2781389889960372
 31
0.0
  0
LINE
  5
CE
  8
BLATTANSICHT_1_GEOMETRIEAN
  6
VOLLINIE
 62
    18
 10
-23.24207278770467
 20
0.5737679689342536
 30
0.0
 11
-22.92724602008928
 21
0.4133557185053709
 31
0.0
  0
LINE
  5
CF
  8
BLATTANSICHT_1_GEOMETRIEAN
  6
VOLLINIE
 62
    18
 10
-23.54334324935789
 20
0.7583867454172147
 30
0.0
 11
-23.24207278770467
 21
0.5737679689342536
 31
0.0
  0
LINE
  5
D0
  8
BLATTANSICHT_1_GEOMETRIEAN
  6
VOLLINIE
 62
    18
 10
-22.26475922596793
 20
0.168951436507059
 30
0.0
 11
-21.92118365084322
 21
0.0864662386074499
 31
0.0
  0
LINE
  5
D1
  8
BLATTANSICHT_1_GEOMETRIEAN
  6
VOLLINIE
 62
    18
 10
-23.78270363049498
 20
0.9299099689609731
 30
0.0
 11
-23.54334324935789
 21
0.7583867454172147
 31
0.0
  0
LINE
  5
D2
  8
BLATTANSICHT_1_GEOMETRIEAN
  6
VOLLINIE
 62
    18
 10
-24.01033336716676
 20
1.116720866008405
 30
0.0
 11
-23.78270363049498
 21
0.9299099689609731
 31
0.0
  0
LINE
  5
D3
  8
BLATTANSICHT_1_GEOMETRIEAN
  6
VOLLINIE
 62
    18
 10
-24.2252577139008
 20
1.318019483623833
 30
0.0
 11
-24.01033336716676
 21
1.116720866008405
 31
0.0
  0
LINE
  5
D4
  8
BLATTANSICHT_1_GEOMETRIEAN
  6
VOLLINIE
 62
    18
 10
-24.42655633350517
 20
1.53294383233853
 30
0.0
 11
-24.2252577139008
 21
1.318019483623833
 31
0.0
  0
LINE
  5
D5
  8
BLATTANSICHT_1_GEOMETRIEAN
  6
VOLLINIE
 62
    18
 10
-24.61336723226577
 20
1.760573571233326
 30
0.0
 11
-24.42655633350517
 21
1.53294383233853
 31
0.0
  0
LINE
  5
D6
  8
BLATTANSICHT_1_GEOMETRIEAN
  6
VOLLINIE
 62
    18
 10
-24.78489045722434
 20
1.9999339548077
 30
0.0
 11
-24.61336723226577
 21
1.760573571233326
 31
0.0
  0
LINE
  5
D7
  8
BLATTANSICHT_1_GEOMETRIEAN
  6
VOLLINIE
 62
    18
 10
-25.29075218663229
 20
3.013744223073266
 30
0.0
 11
-25.15080189346297
 21
2.662000846237394
 31
0.0
  0
LINE
  5
D8
  8
BLATTANSICHT_1_GEOMETRIEAN
  6
VOLLINIE
 62
    18
 10
-25.400643049459
 20
3.376005849488866
 30
0.0
 11
-25.29075218663229
 21
3.013744223073266
 31
0.0
  0
LINE
  5
D9
  8
BLATTANSICHT_1_GEOMETRIEAN
  6
VOLLINIE
 62
    18
 10
-25.52735392310561
 20
4.121772637699025
 30
0.0
 11
-25.47969678301688
 21
3.746221995701644
 31
0.0
  0
LINE
  5
DA
  8
BLATTANSICHT_1_GEOMETRIEAN
  6
VOLLINIE
 62
    18
 10
-25.54327719958532
 20
4.49999999917915
 30
0.0
 11
-25.52735392310561
 21
4.121772637699025
 31
0.0
  0
LINE
  5
DB
  8
BLATTANSICHT_1_GEOMETRIEAN
  6
VOLLINIE
 62
    18
 10
-25.47969678301688
 20
3.746221995701644
 30
0.0
 11
-25.400643049459
 21
3.376005849488866
 31
0.0
  0
LINE
  5
DC
  8
BLATTANSICHT_1_GEOMETRIEAN
  6
VOLLINIE
 62
    18
 10
-25.15080189346297
 20
2.662000846237394
 30
0.0
 11
-24.98178259981859
 21
2.323265010988093
 31
0.0
  0
LINE
  5
DD
  8
BLATTANSICHT_1_GEOMETRIEAN
  6
VOLLINIE
 62
    18
 10
-24.98178259981859
 20
2.323265010988093
 30
0.0
 11
-24.78489045722434
 21
1.9999339548077
 31
0.0
  0
LINE
  5
DE
  8
BLATTANSICHT_1_GEOMETRIEAN
  6
VOLLINIE
 62
    18
 10
-25.52633773593595
 20
4.890087461226
 30
0.0
 11
-25.53904033911891
 21
4.695227542130033
 31
0.0
  0
LINE
  5
DF
  8
BLATTANSICHT_1_GEOMETRIEAN
  6
VOLLINIE
 62
    18
 10
-25.50519330966188
 20
5.084212826480631
 30
0.0
 11
-25.52633773593595
 21
4.890087461226
 31
0.0
  0
LINE
  5
E0
  8
BLATTANSICHT_1_GEOMETRIEAN
  6
VOLLINIE
 62
    18
 10
-25.53904033911891
 20
4.695227542130033
 30
0.0
 11
-25.54327719958532
 21
4.49999999917915
 31
0.0
  0
LINE
  5
E1
  8
BLATTANSICHT_1_GEOMETRIEAN
  6
VOLLINIE
 62
    18
 10
-25.47564687646705
 20
5.277238089287676
 30
0.0
 11
-25.50519330966188
 21
5.084212826480631
 31
0.0
  0
LINE
  5
E2
  8
BLATTANSICHT_1_GEOMETRIEAN
  6
VOLLINIE
 62
    18
 10
-25.43775407364611
 20
5.468799774628534
 30
0.0
 11
-25.47564687646705
 21
5.277238089287676
 31
0.0
  0
LINE
  5
E3
  8
BLATTANSICHT_1_GEOMETRIEAN
  6
VOLLINIE
 62
    18
 10
-25.39158625520638
 20
5.658537162448611
 30
0.0
 11
-25.43775407364611
 21
5.468799774628534
 31
0.0
  0
LINE
  5
E4
  8
BLATTANSICHT_1_GEOMETRIEAN
  6
VOLLINIE
 62
    18
 10
-24.23872961056721
 20
7.668451339230197
 30
0.0
 11
-24.50136158510097
 21
7.379522943575833
 31
0.0
  0
LINE
  5
E5
  8
BLATTANSICHT_1_GEOMETRIEAN
  6
VOLLINIE
 62
    18
 10
-24.50136158510097
 20
7.379522943575833
 30
0.0
 11
-24.73795885102682
 21
7.068915626180862
 31
0.0
  0
LINE
  5
E6
  8
BLATTANSICHT_1_GEOMETRIEAN
  6
VOLLINIE
 62
    18
 10
-24.73795885102682
 20
7.068915626180862
 30
0.0
 11
-24.94674015022927
 21
6.738967840968972
 31
0.0
  0
LINE
  5
E7
  8
BLATTANSICHT_1_GEOMETRIEAN
  6
VOLLINIE
 62
    18
 10
-23.80034179874626
 20
8.056486299138973
 30
0.0
 11
-23.95204019326033
 21
7.933525570975055
 31
0.0
  0
LINE
  5
E8
  8
BLATTANSICHT_1_GEOMETRIEAN
  6
VOLLINIE
 62
    18
 10
-24.09826124433848
 20
7.804099345694633
 30
0.0
 11
-24.23872961056721
 21
7.668451339230197
 31
0.0
  0
LINE
  5
E9
  8
BLATTANSICHT_1_GEOMETRIEAN
  6
VOLLINIE
 62
    18
 10
-23.95204019326033
 20
7.933525570975055
 30
0.0
 11
-24.09826124433848
 21
7.804099345694633
 31
0.0
  0
LINE
  5
EA
  8
BLATTANSICHT_1_GEOMETRIEAN
  6
VOLLINIE
 62
    18
 10
-23.6434517147721
 20
8.17274999019533
 30
0.0
 11
-23.80034179874626
 21
8.056486299138973
 31
0.0
  0
LINE
  5
EB
  8
BLATTANSICHT_1_GEOMETRIEAN
  6
VOLLINIE
 62
    18
 10
-23.48166537451311
 20
8.282097712682237
 30
0.0
 11
-23.6434517147721
 21
8.17274999019533
 31
0.0
  0
LINE
  5
EC
  8
BLATTANSICHT_1_GEOMETRIEAN
  6
VOLLINIE
 62
    18
 10
-23.31528742959196
 20
8.384323559469067
 30
0.0
 11
-23.48166537451311
 21
8.282097712682237
 31
0.0
  0
LINE
  5
ED
  8
BLATTANSICHT_1_GEOMETRIEAN
  6
VOLLINIE
 62
    18
 10
-20.55305952458533
 20
9.999999999987297
 30
0.0
 11
-23.31528742959196
 21
8.384323559469067
 31
0.0
  0
LINE
  5
EE
  8
BLATTANSICHT_1_GEOMETRIEAN
  6
VOLLINIE
 62
    18
 10
-19.54327719958533
 20
8.2736339739873
 30
0.0
 11
-20.55305952458533
 21
9.999999999987297
 31
0.0
  0
LINE
  5
EF
  8
BLATTANSICHT_1_GEOMETRIEAN
  6
VOLLINIE
 62
    18
 10
-22.30550510514458
 20
6.657957533032741
 30
0.0
 11
-19.54327719958533
 21
8.2736339739873
 31
0.0
  0
LINE
  5
F0
  8
BLATTANSICHT_1_GEOMETRIEAN
  6
VOLLINIE
 62
    18
 10
-22.48781859687887
 20
6.54041666123695
 30
0.0
 11
-22.30550510514458
 21
6.657957533032741
 31
0.0
  0
LINE
  5
F1
  8
BLATTANSICHT_1_GEOMETRIEAN
  6
VOLLINIE
 62
    18
 10
-22.65925664125723
 20
6.407514205463569
 30
0.0
 11
-22.48781859687887
 21
6.54041666123695
 31
0.0
  0
LINE
  5
F2
  8
BLATTANSICHT_1_GEOMETRIEAN
  6
VOLLINIE
 62
    18
 10
-22.81852854115597
 20
6.260250741856636
 30
0.0
 11
-22.65925664125723
 21
6.407514205463569
 31
0.0
  0
LINE
  5
F3
  8
BLATTANSICHT_1_GEOMETRIEAN
  6
VOLLINIE
 62
    18
 10
-22.9644351941016
 20
6.099734965569461
 30
0.0
 11
-22.81852854115597
 21
6.260250741856636
 31
0.0
  0
LINE
  5
F4
  8
BLATTANSICHT_1_GEOMETRIEAN
  6
VOLLINIE
 62
    18
 10
-23.09587811989409
 20
5.927175343786233
 30
0.0
 11
-22.9644351941016
 21
6.099734965569461
 31
0.0
  0
LINE
  5
F5
  8
BLATTANSICHT_1_GEOMETRIEAN
  6
VOLLINIE
 62
    18
 10
-23.21186773068056
 20
5.743871017594866
 30
0.0
 11
-23.09587811989409
 21
5.927175343786233
 31
0.0
  0
LINE
  5
F6
  8
BLATTANSICHT_1_GEOMETRIEAN
  6
VOLLINIE
 62
    18
 10
-24.94674015022927
 20
6.738967840968972
 30
0.0
 11
-25.04020009783589
 21
6.567512356767859
 31
0.0
  0
LINE
  5
F7
  8
BLATTANSICHT_1_GEOMETRIEAN
  6
VOLLINIE
 62
    18
 10
-25.04020009783589
 20
6.567512356767859
 30
0.0
 11
-25.12613364325888
 21
6.392163645223423
 31
0.0
  0
LINE
  5
F8
  8
BLATTANSICHT_1_GEOMETRIEAN
  6
VOLLINIE
 62
    18
 10
-25.12613364325888
 20
6.392163645223423
 30
0.0
 11
-25.20437896941038
 21
6.213251896574248
 31
0.0
  0
LINE
  5
F9
  8
BLATTANSICHT_1_GEOMETRIEAN
  6
VOLLINIE
 62
    18
 10
-25.20437896941038
 20
6.213251896574248
 30
0.0
 11
-25.27478873540715
 21
6.031114013445082
 31
0.0
  0
LINE
  5
FA
  8
BLATTANSICHT_1_GEOMETRIEAN
  6
VOLLINIE
 62
    18
 10
-25.27478873540715
 20
6.031114013445082
 30
0.0
 11
-25.33723035755194
 21
5.846092967500513
 31
0.0
  0
LINE
  5
FB
  8
BLATTANSICHT_1_GEOMETRIEAN
  6
VOLLINIE
 62
    18
 10
-25.33723035755194
 20
5.846092967500513
 30
0.0
 11
-25.39158625520638
 21
5.658537162448611
 31
0.0
  0
LINE
  5
FC
  8
BLATTANSICHT_1_GEOMETRIEAN
  6
VOLLINIE
 62
    18
 10
-23.31153078086388
 20
5.551202021968344
 30
0.0
 11
-23.21186773068056
 21
5.743871017594866
 31
0.0
  0
LINE
  5
FD
  8
BLATTANSICHT_1_GEOMETRIEAN
  6
VOLLINIE
 62
    18
 10
-23.39411694265276
 20
5.350618893743269
 30
0.0
 11
-23.31153078086388
 21
5.551202021968344
 31
0.0
  0
LINE
  5
FE
  8
BLATTANSICHT_1_GEOMETRIEAN
  6
VOLLINIE
 62
    18
 10
-23.45900445370131
 20
5.143631753182552
 30
0.0
 11
-23.39411694265276
 21
5.350618893743269
 31
0.0
  0
LINE
  5
FF
  8
BLATTANSICHT_1_GEOMETRIEAN
  6
VOLLINIE
 62
    18
 10
-23.50570479839581
 20
4.931798935391742
 30
0.0
 11
-23.45900445370131
 21
5.143631753182552
 31
0.0
  0
LINE
  5
100
  8
BLATTANSICHT_1_GEOMETRIEAN
  6
VOLLINIE
 62
    18
 10
-23.53386638660777
 20
4.716715254380909
 30
0.0
 11
-23.50570479839581
 21
4.931798935391742
 31
0.0
  0
LINE
  5
101
  8
BLATTANSICHT_1_GEOMETRIEAN
  6
VOLLINIE
 62
    18
 10
-23.54327719958533
 20
4.499999999987308
 30
0.0
 11
-23.53386638660777
 21
4.716715254380909
 31
0.0
  0
LINE
  5
102
  8
BLATTANSICHT_1_GEOMETRIEAN
  6
VOLLINIE
 62
    18
 10
-23.53792450768302
 20
4.336492176929973
 30
0.0
 11
-23.54327719958533
 21
4.499999999987308
 31
0.0
  0
LINE
  5
103
  8
BLATTANSICHT_1_GEOMETRIEAN
  6
VOLLINIE
 62
    18
 10
-23.52188935308316
 20
4.173684519918126
 30
0.0
 11
-23.53792450768302
 21
4.336492176929973
 31
0.0
  0
LINE
  5
104
  8
BLATTANSICHT_1_GEOMETRIEAN
  6
VOLLINIE
 62
    18
 10
-23.49524040077916
 20
4.012274195880853
 30
0.0
 11
-23.52188935308316
 21
4.173684519918126
 31
0.0
  0
LINE
  5
105
  8
BLATTANSICHT_1_GEOMETRIEAN
  6
VOLLINIE
 62
    18
 10
-23.45809176575097
 20
3.852952388884195
 30
0.0
 11
-23.49524040077916
 21
4.012274195880853
 31
0.0
  0
LINE
  5
106
  8
BLATTANSICHT_1_GEOMETRIEAN
  6
VOLLINIE
 62
    18
 10
-23.41060252411732
 20
3.696401339069133
 30
0.0
 11
-23.45809176575097
 21
3.852952388884195
 31
0.0
  0
LINE
  5
107
  8
BLATTANSICHT_1_GEOMETRIEAN
  6
VOLLINIE
 62
    18
 10
-23.35297603209969
 20
3.543291422058892
 30
0.0
 11
-23.41060252411732
 21
3.696401339069133
 31
0.0
  0
LINE
  5
108
  8
BLATTANSICHT_1_GEOMETRIEAN
  6
VOLLINIE
 62
    18
 10
-23.26439129040584
 20
3.35254534050894
 30
0.0
 11
-23.35297603209969
 21
3.543291422058892
 31
0.0
  0
LINE
  5
109
  8
BLATTANSICHT_1_GEOMETRIEAN
  6
VOLLINIE
 62
    18
 10
-23.16008769796211
 20
3.169919809186072
 30
0.0
 11
-23.26439129040584
 21
3.35254534050894
 31
0.0
  0
LINE
  5
10A
  8
BLATTANSICHT_1_GEOMETRIEAN
  6
VOLLINIE
 62
    18
 10
-23.04080341252866
 20
2.9967072711403
 30
0.0
 11
-23.16008769796211
 21
3.169919809186072
 31
0.0
  0
LINE
  5
10B
  8
BLATTANSICHT_1_GEOMETRIEAN
  6
VOLLINIE
 62
    18
 10
-22.90738261040748
 20
2.834133553556641
 30
0.0
 11
-23.04080341252866
 21
2.9967072711403
 31
0.0
  0
LINE
  5
10C
  8
BLATTANSICHT_1_GEOMETRIEAN
  6
VOLLINIE
 62
    18
 10
-22.76076951219679
 20
2.683349192561581
 30
0.0
 11
-22.90738261040748
 21
2.834133553556641
 31
0.0
  0
LINE
  5
10D
  8
BLATTANSICHT_1_GEOMETRIEAN
  6
VOLLINIE
 62
    18
 10
-22.60200170053054
 20
2.545421290865282
 30
0.0
 11
-22.76076951219679
 21
2.683349192561581
 31
0.0
  0
LINE
  5
10E
  8
BLATTANSICHT_1_GEOMETRIEAN
  6
VOLLINIE
 62
    18
 10
-22.43220277709396
 20
2.421325965863073
 30
0.0
 11
-22.60200170053054
 21
2.545421290865282
 31
0.0
  0
LINE
  5
10F
  8
BLATTANSICHT_1_GEOMETRIEAN
  6
VOLLINIE
 62
    18
 10
-22.29327719750805
 20
2.334936489326886
 30
0.0
 11
-22.43220277709396
 21
2.421325965863073
 31
0.0
  0
LINE
  5
110
  8
BLATTANSICHT_1_GEOMETRIEAN
  6
VOLLINIE
 62
    18
 10
-22.14899892626713
 20
2.257818146714956
 30
0.0
 11
-22.29327719750805
 21
2.334936489326886
 31
0.0
  0
LINE
  5
111
  8
BLATTANSICHT_1_GEOMETRIEAN
  6
VOLLINIE
 62
    18
 10
-21.99998578505102
 20
2.190301170594974
 30
0.0
 11
-22.14899892626713
 21
2.257818146714956
 31
0.0
  0
LINE
  5
112
  8
BLATTANSICHT_1_GEOMETRIEAN
  6
VOLLINIE
 62
    18
 10
-21.8468758673817
 20
2.132674677790135
 30
0.0
 11
-21.99998578505102
 21
2.190301170594974
 31
0.0
  0
LINE
  5
113
  8
BLATTANSICHT_1_GEOMETRIEAN
  6
VOLLINIE
 62
    18
 10
-21.69032481684047
 20
2.085185435470096
 30
0.0
 11
-21.8468758673817
 21
2.132674677790135
 31
0.0
  0
LINE
  5
114
  8
BLATTANSICHT_1_GEOMETRIEAN
  6
VOLLINIE
 62
    18
 10
-21.53100300906102
 20
2.048036799861479
 30
0.0
 11
-21.69032481684047
 21
2.085185435470096
 31
0.0
  0
LINE
  5
115
  8
BLATTANSICHT_1_GEOMETRIEAN
  6
VOLLINIE
 62
    18
 10
-21.36959268280668
 20
2.021387846904443
 30
0.0
 11
-21.53100300906102
 21
2.048036799861479
 31
0.0
  0
LINE
  5
116
  8
BLATTANSICHT_1_GEOMETRIEAN
  6
VOLLINIE
 62
    18
 10
-21.2067850235251
 20
2.005352691947452
 30
0.0
 11
-21.36959268280668
 21
2.021387846904443
 31
0.0
  0
LINE
  5
117
  8
BLATTANSICHT_1_GEOMETRIEAN
  6
VOLLINIE
 62
    18
 10
-21.04327719862361
 20
1.999999999987295
 30
0.0
 11
-21.2067850235251
 21
2.005352691947452
 31
0.0
  0
LINE
  5
118
  8
BLATTANSICHT_1_GEOMETRIEAN
  6
VOLLINIE
 62
    18
 10
-21.92118365084322
 20
0.0864662386074499
 30
0.0
 11
-21.63064506547617
 21
0.038498123923724
 31
0.0
  0
LINE
  5
119
  8
BLATTANSICHT_1_GEOMETRIEAN
  6
VOLLINIE
 62
    18
 10
-21.63064506547617
 20
0.038498123923724
 30
0.0
 11
-21.33759128071049
 21
0.0096348453866761
 31
0.0
  0
LINE
  5
11A
  8
BLATTANSICHT_1_GEOMETRIEAN
  6
VOLLINIE
 62
    18
 10
-21.33759128071049
 20
0.0096348453866761
 30
0.0
 11
-21.04327719785422
 21
-0.0000000000127011
 31
0.0
  0
LINE
  5
11B
  8
BLATTANSICHT_1_GEOMETRIEAN
  6
VOLLINIE
 62
    18
 10
-21.04327719785422
 20
-0.0000000000127011
 30
0.0
 11
-11.54327719958533
 21
-0.0000000000127011
 31
0.0
  0
LINE
  5
11C
  8
BLATTANSICHT_1_GEOMETRIEAN
  6
VOLLINIE
 62
    18
 10
-11.54327719958533
 20
1.999999999407296
 30
0.0
 11
-21.04327719862361
 21
1.999999999987295
 31
0.0
  0
LINE
  5
11D
  8
BLATTANSICHT_1_GEOMETRIEAN
  6
VOLLINIE
 62
    18
 10
-7.579067536635614
 20
2.000000000833804
 30
0.0
 11
-7.591696723906333
 21
2.000000000833804
 31
0.0
  0
LINE
  5
11E
  8
BLATTANSICHT_1_GEOMETRIEAN
  6
VOLLINIE
 62
    18
 10
-7.484483969177058
 20
2.000000000833804
 30
0.0
 11
-7.523425145769775
 21
2.000000000833804
 31
0.0
  0
LINE
  5
11F
  8
BLATTANSICHT_1_GEOMETRIEAN
  6
VOLLINIE
 62
    18
 10
-7.318629282747708
 20
2.000000000833804
 30
0.0
 11
-7.381866325839271
 21
2.000000000833804
 31
0.0
  0
LINE
  5
120
  8
BLATTANSICHT_1_GEOMETRIEAN
  6
VOLLINIE
 62
    18
 10
-7.247789909139548
 20
2.000000000833804
 30
0.0
 11
-7.318629282747708
 21
2.000000000833804
 31
0.0
  0
LINE
  5
121
  8
BLATTANSICHT_1_GEOMETRIEAN
  6
VOLLINIE
 62
    18
 10
-7.169651548489266
 20
2.000000000833804
 30
0.0
 11
-7.247789909139548
 21
2.000000000833804
 31
0.0
  0
LINE
  5
122
  8
BLATTANSICHT_1_GEOMETRIEAN
  6
VOLLINIE
 62
    18
 10
-7.084548802605607
 20
2.000000000833804
 30
0.0
 11
-7.169651548489266
 21
2.000000000833804
 31
0.0
  0
LINE
  5
123
  8
BLATTANSICHT_1_GEOMETRIEAN
  6
VOLLINIE
 62
    18
 10
-6.992846094542338
 20
2.000000000833804
 30
0.0
 11
-7.084548802605607
 21
2.000000000833804
 31
0.0
  0
LINE
  5
124
  8
BLATTANSICHT_1_GEOMETRIEAN
  6
VOLLINIE
 62
    18
 10
-6.894936113157487
 20
2.000000000833804
 30
0.0
 11
-6.992846094542338
 21
2.000000000833804
 31
0.0
  0
LINE
  5
125
  8
BLATTANSICHT_1_GEOMETRIEAN
  6
VOLLINIE
 62
    18
 10
-6.79123812073767
 20
2.000000000833804
 30
0.0
 11
-6.894936113157487
 21
2.000000000833804
 31
0.0
  0
LINE
  5
126
  8
BLATTANSICHT_1_GEOMETRIEAN
  6
VOLLINIE
 62
    18
 10
-6.682196168010805
 20
2.000000000833804
 30
0.0
 11
-6.79123812073767
 21
2.000000000833804
 31
0.0
  0
LINE
  5
127
  8
BLATTANSICHT_1_GEOMETRIEAN
  6
VOLLINIE
 62
    18
 10
-6.568277195130483
 20
2.000000000833804
 30
0.0
 11
-6.682196168010805
 21
2.000000000833804
 31
0.0
  0
LINE
  5
128
  8
BLATTANSICHT_1_GEOMETRIEAN
  6
VOLLINIE
 62
    18
 10
-6.449969015301037
 20
2.000000000833804
 30
0.0
 11
-6.568277195130483
 21
2.000000000833804
 31
0.0
  0
LINE
  5
129
  8
BLATTANSICHT_1_GEOMETRIEAN
  6
VOLLINIE
 62
    18
 10
-6.327778242266204
 20
2.000000000833804
 30
0.0
 11
-6.449969015301037
 21
2.000000000833804
 31
0.0
  0
LINE
  5
12A
  8
BLATTANSICHT_1_GEOMETRIEAN
  6
VOLLINIE
 62
    18
 10
-6.202228109470159
 20
2.000000000833804
 30
0.0
 11
-6.327778242266204
 21
2.000000000833804
 31
0.0
  0
LINE
  5
12B
  8
BLATTANSICHT_1_GEOMETRIEAN
  6
VOLLINIE
 62
    18
 10
-6.073856247693056
 20
2.000000000833804
 30
0.0
 11
-6.202228109470159
 21
2.000000000833804
 31
0.0
  0
LINE
  5
12C
  8
BLATTANSICHT_1_GEOMETRIEAN
  6
VOLLINIE
 62
    18
 10
-5.94321236495916
 20
2.000000000833804
 30
0.0
 11
-6.073856247693056
 21
2.000000000833804
 31
0.0
  0
LINE
  5
12D
  8
BLATTANSICHT_1_GEOMETRIEAN
  6
VOLLINIE
 62
    18
 10
-5.810855897168056
 20
2.000000000833804
 30
0.0
 11
-5.94321236495916
 21
2.000000000833804
 31
0.0
  0
LINE
  5
12E
  8
BLATTANSICHT_1_GEOMETRIEAN
  6
VOLLINIE
 62
    18
 10
-5.67735361628426
 20
2.000000000833804
 30
0.0
 11
-5.810855897168056
 21
2.000000000833804
 31
0.0
  0
LINE
  5
12F
  8
BLATTANSICHT_1_GEOMETRIEAN
  6
VOLLINIE
 62
    18
 10
-5.677353616222627
 20
0.0
 30
0.0
 11
-5.543277199217186
 21
-0.0000000000127011
 31
0.0
  0
LINE
  5
130
  8
BLATTANSICHT_1_GEOMETRIEAN
  6
VOLLINIE
 62
    18
 10
-5.810855897045568
 20
0.0
 30
0.0
 11
-5.677353616222627
 21
0.0
 31
0.0
  0
LINE
  5
131
  8
BLATTANSICHT_1_GEOMETRIEAN
  6
VOLLINIE
 62
    18
 10
-5.943212364777419
 20
0.0
 30
0.0
 11
-5.810855897045568
 21
0.0
 31
0.0
  0
LINE
  5
132
  8
BLATTANSICHT_1_GEOMETRIEAN
  6
VOLLINIE
 62
    18
 10
-6.073856247456687
 20
0.0
 30
0.0
 11
-5.943212364777419
 21
0.0
 31
0.0
  0
LINE
  5
133
  8
BLATTANSICHT_1_GEOMETRIEAN
  6
VOLLINIE
 62
    18
 10
-6.202228109182196
 20
0.0
 30
0.0
 11
-6.073856247456687
 21
0.0
 31
0.0
  0
LINE
  5
134
  8
BLATTANSICHT_1_GEOMETRIEAN
  6
VOLLINIE
 62
    18
 10
-6.32777824193038
 20
0.0
 30
0.0
 11
-6.202228109182196
 21
0.0
 31
0.0
  0
LINE
  5
135
  8
BLATTANSICHT_1_GEOMETRIEAN
  6
VOLLINIE
 62
    18
 10
-6.449969014925937
 20
0.0
 30
0.0
 11
-6.32777824193038
 21
0.0
 31
0.0
  0
LINE
  5
136
  8
BLATTANSICHT_1_GEOMETRIEAN
  6
VOLLINIE
 62
    18
 10
-6.568277194720877
 20
0.0
 30
0.0
 11
-6.449969014925937
 21
0.0
 31
0.0
  0
LINE
  5
137
  8
BLATTANSICHT_1_GEOMETRIEAN
  6
VOLLINIE
 62
    18
 10
-6.682196167572018
 20
0.0
 30
0.0
 11
-6.568277194720877
 21
0.0
 31
0.0
  0
LINE
  5
138
  8
BLATTANSICHT_1_GEOMETRIEAN
  6
VOLLINIE
 62
    18
 10
-6.791238120280936
 20
0.0
 30
0.0
 11
-6.682196167572018
 21
0.0
 31
0.0
  0
LINE
  5
139
  8
BLATTANSICHT_1_GEOMETRIEAN
  6
VOLLINIE
 62
    18
 10
-6.894936112688583
 20
0.0
 30
0.0
 11
-6.791238120280936
 21
0.0
 31
0.0
  0
LINE
  5
13A
  8
BLATTANSICHT_1_GEOMETRIEAN
  6
VOLLINIE
 62
    18
 10
-6.992846094067399
 20
0.0
 30
0.0
 11
-6.894936112688583
 21
0.0
 31
0.0
  0
LINE
  5
13B
  8
BLATTANSICHT_1_GEOMETRIEAN
  6
VOLLINIE
 62
    18
 10
-7.084548802136793
 20
0.0
 30
0.0
 11
-6.992846094067399
 21
0.0
 31
0.0
  0
LINE
  5
13C
  8
BLATTANSICHT_1_GEOMETRIEAN
  6
VOLLINIE
 62
    18
 10
-7.169651548032442
 20
0.0
 30
0.0
 11
-7.084548802136793
 21
0.0
 31
0.0
  0
LINE
  5
13D
  8
BLATTANSICHT_1_GEOMETRIEAN
  6
VOLLINIE
 62
    18
 10
-7.247789908700772
 20
0.0
 30
0.0
 11
-7.169651548032442
 21
0.0
 31
0.0
  0
LINE
  5
13E
  8
BLATTANSICHT_1_GEOMETRIEAN
  6
VOLLINIE
 62
    18
 10
-7.31862928233818
 20
0.0
 30
0.0
 11
-7.247789908700772
 21
0.0
 31
0.0
  0
LINE
  5
13F
  8
BLATTANSICHT_1_GEOMETRIEAN
  6
VOLLINIE
 62
    18
 10
-7.347511992847998
 20
0.0
 30
0.0
 11
-7.31862928233818
 21
0.0
 31
0.0
  0
LINE
  5
140
  8
BLATTANSICHT_1_GEOMETRIEAN
  6
VOLLINIE
 62
    18
 10
-5.275698503644269
 20
2.000000000833804
 30
0.0
 11
-5.409200783526807
 21
2.000000000833804
 31
0.0
  0
LINE
  5
141
  8
BLATTANSICHT_1_GEOMETRIEAN
  6
VOLLINIE
 62
    18
 10
-5.143342036834254
 20
2.000000000833804
 30
0.0
 11
-5.275698503644269
 21
2.000000000833804
 31
0.0
  0
LINE
  5
142
  8
BLATTANSICHT_1_GEOMETRIEAN
  6
VOLLINIE
 62
    18
 10
-5.012698154103977
 20
2.000000000833804
 30
0.0
 11
-5.143342036834254
 21
2.000000000833804
 31
0.0
  0
LINE
  5
143
  8
BLATTANSICHT_1_GEOMETRIEAN
  6
VOLLINIE
 62
    18
 10
-4.884326292322307
 20
2.000000000833804
 30
0.0
 11
-5.012698154103977
 21
2.000000000833804
 31
0.0
  0
LINE
  5
144
  8
BLATTANSICHT_1_GEOMETRIEAN
  6
VOLLINIE
 62
    18
 10
-4.758776159513268
 20
2.000000000833804
 30
0.0
 11
-4.884326292322307
 21
2.000000000833804
 31
0.0
  0
LINE
  5
145
  8
BLATTANSICHT_1_GEOMETRIEAN
  6
VOLLINIE
 62
    18
 10
-4.636585386436202
 20
2.000000000833804
 30
0.0
 11
-4.758776159513268
 21
2.000000000833804
 31
0.0
  0
LINE
  5
146
  8
BLATTANSICHT_1_GEOMETRIEAN
  6
VOLLINIE
 62
    18
 10
-4.518277206557205
 20
2.000000000833804
 30
0.0
 11
-4.636585386436202
 21
2.000000000833804
 31
0.0
  0
LINE
  5
147
  8
BLATTANSICHT_1_GEOMETRIEAN
  6
VOLLINIE
 62
    18
 10
-4.404358233620168
 20
2.000000000833804
 30
0.0
 11
-4.518277206557205
 21
2.000000000833804
 31
0.0
  0
LINE
  5
148
  8
BLATTANSICHT_1_GEOMETRIEAN
  6
VOLLINIE
 62
    18
 10
-4.295316280811129
 20
2.000000000833804
 30
0.0
 11
-4.404358233620168
 21
2.000000000833804
 31
0.0
  0
LINE
  5
149
  8
BLATTANSICHT_1_GEOMETRIEAN
  6
VOLLINIE
 62
    18
 10
-4.191618288304332
 20
2.000000000833804
 30
0.0
 11
-4.295316280811129
 21
2.000000000833804
 31
0.0
  0
LINE
  5
14A
  8
BLATTANSICHT_1_GEOMETRIEAN
  6
VOLLINIE
 62
    18
 10
-4.093708306828171
 20
2.000000000833804
 30
0.0
 11
-4.191618288304332
 21
2.000000000833804
 31
0.0
  0
LINE
  5
14B
  8
BLATTANSICHT_1_GEOMETRIEAN
  6
VOLLINIE
 62
    18
 10
-4.002005598654799
 20
2.000000000833804
 30
0.0
 11
-4.093708306828171
 21
2.000000000833804
 31
0.0
  0
LINE
  5
14C
  8
BLATTANSICHT_1_GEOMETRIEAN
  6
VOLLINIE
 62
    18
 10
-3.916902852659989
 20
2.000000000833804
 30
0.0
 11
-4.002005598654799
 21
2.000000000833804
 31
0.0
  0
LINE
  5
14D
  8
BLATTANSICHT_1_GEOMETRIEAN
  6
VOLLINIE
 62
    18
 10
-3.838764491898194
 20
2.000000000833804
 30
0.0
 11
-3.916902852659989
 21
2.000000000833804
 31
0.0
  0
LINE
  5
14E
  8
BLATTANSICHT_1_GEOMETRIEAN
  6
VOLLINIE
 62
    18
 10
-3.767925118168257
 20
2.000000000833804
 30
0.0
 11
-3.838764491898194
 21
2.000000000833804
 31
0.0
  0
LINE
  5
14F
  8
BLATTANSICHT_1_GEOMETRIEAN
  6
VOLLINIE
 62
    18
 10
-3.7046880749583
 20
2.000000000833804
 30
0.0
 11
-3.767925118168257
 21
2.000000000833804
 31
0.0
  0
LINE
  5
150
  8
BLATTANSICHT_1_GEOMETRIEAN
  6
VOLLINIE
 62
    18
 10
-3.5631292539668
 20
2.000000000833804
 30
0.0
 11
-3.602070430941409
 21
2.000000000833804
 31
0.0
  0
LINE
  5
151
  8
BLATTANSICHT_1_GEOMETRIEAN
  6
VOLLINIE
 62
    18
 10
-3.494857676220165
 20
2.000000000833804
 30
0.0
 11
-3.507486863319892
 21
2.000000000833804
 31
0.0
  0
LINE
  5
152
  8
BLATTANSICHT_1_GEOMETRIEAN
  6
VOLLINIE
 62
    18
 10
-3.767925117758752
 20
0.0
 30
0.0
 11
-3.739042408525465
 21
0.0
 31
0.0
  0
LINE
  5
153
  8
BLATTANSICHT_1_GEOMETRIEAN
  6
VOLLINIE
 62
    18
 10
-3.838764491459441
 20
0.0
 30
0.0
 11
-3.767925117758752
 21
0.0
 31
0.0
  0
LINE
  5
154
  8
BLATTANSICHT_1_GEOMETRIEAN
  6
VOLLINIE
 62
    18
 10
-3.916902852203199
 20
0.0
 30
0.0
 11
-3.838764491459441
 21
0.0
 31
0.0
  0
LINE
  5
155
  8
BLATTANSICHT_1_GEOMETRIEAN
  6
VOLLINIE
 62
    18
 10
-4.002005598186008
 20
0.0
 30
0.0
 11
-3.916902852203199
 21
0.0
 31
0.0
  0
LINE
  5
156
  8
BLATTANSICHT_1_GEOMETRIEAN
  6
VOLLINIE
 62
    18
 10
-4.093708306353266
 20
0.0
 30
0.0
 11
-4.002005598186008
 21
0.0
 31
0.0
  0
LINE
  5
157
  8
BLATTANSICHT_1_GEOMETRIEAN
  6
VOLLINIE
 62
    18
 10
-4.191618287835461
 20
0.0
 30
0.0
 11
-4.093708306353266
 21
0.0
 31
0.0
  0
LINE
  5
158
  8
BLATTANSICHT_1_GEOMETRIEAN
  6
VOLLINIE
 62
    18
 10
-4.295316280354429
 20
0.0
 30
0.0
 11
-4.191618287835461
 21
0.0
 31
0.0
  0
LINE
  5
159
  8
BLATTANSICHT_1_GEOMETRIEAN
  6
VOLLINIE
 62
    18
 10
-4.404358233181403
 20
0.0
 30
0.0
 11
-4.295316280354429
 21
0.0
 31
0.0
  0
LINE
  5
15A
  8
BLATTANSICHT_1_GEOMETRIEAN
  6
VOLLINIE
 62
    18
 10
-4.518277206147622
 20
0.0
 30
0.0
 11
-4.404358233181403
 21
0.0
 31
0.0
  0
LINE
  5
15B
  8
BLATTANSICHT_1_GEOMETRIEAN
  6
VOLLINIE
 62
    18
 10
-4.636585386061124
 20
0.0
 30
0.0
 11
-4.518277206147622
 21
0.0
 31
0.0
  0
LINE
  5
15C
  8
BLATTANSICHT_1_GEOMETRIEAN
  6
VOLLINIE
 62
    18
 10
-4.758776159177454
 20
0.0
 30
0.0
 11
-4.636585386061124
 21
0.0
 31
0.0
  0
LINE
  5
15D
  8
BLATTANSICHT_1_GEOMETRIEAN
  6
VOLLINIE
 62
    18
 10
-4.884326292034365
 20
0.0
 30
0.0
 11
-4.758776159177454
 21
0.0
 31
0.0
  0
LINE
  5
15E
  8
BLATTANSICHT_1_GEOMETRIEAN
  6
VOLLINIE
 62
    18
 10
-5.01269815386763
 20
0.0
 30
0.0
 11
-4.884326292034365
 21
0.0
 31
0.0
  0
LINE
  5
15F
  8
BLATTANSICHT_1_GEOMETRIEAN
  6
VOLLINIE
 62
    18
 10
-5.143342036652512
 20
0.0
 30
0.0
 11
-5.01269815386763
 21
0.0
 31
0.0
  0
LINE
  5
160
  8
BLATTANSICHT_1_GEOMETRIEAN
  6
VOLLINIE
 62
    18
 10
-5.275698503521792
 20
0.0
 30
0.0
 11
-5.143342036652512
 21
0.0
 31
0.0
  0
LINE
  5
161
  8
BLATTANSICHT_1_GEOMETRIEAN
  6
VOLLINIE
 62
    18
 10
-5.409200783465174
 20
0.0
 30
0.0
 11
-5.275698503521792
 21
0.0
 31
0.0
  0
LINE
  5
162
  8
BLATTANSICHT_1_GEOMETRIEAN
  6
VOLLINIE
 62
    18
 10
-5.543277199217186
 20
-0.0000000000127011
 30
0.0
 11
-5.409200783465174
 21
0.0
 31
0.0
  0
LINE
  5
163
  8
BLATTANSICHT_1_GEOMETRIEAN
  6
VOLLINIE
 62
    18
 10
65.10071222990258
 20
0.0
 30
0.0
 11
65.44698009530694
 21
0.0
 31
0.0
  0
LINE
  5
164
  8
BLATTANSICHT_1_GEOMETRIEAN
  6
VOLLINIE
 62
    18
 10
65.44698009530694
 20
0.0
 30
0.0
 11
65.80461164957283
 21
0.0
 31
0.0
  0
LINE
  5
165
  8
BLATTANSICHT_1_GEOMETRIEAN
  6
VOLLINIE
 62
    18
 10
64.76729082557685
 20
0.0
 30
0.0
 11
65.10071222990258
 21
0.0
 31
0.0
  0
LINE
  5
166
  8
BLATTANSICHT_1_GEOMETRIEAN
  6
VOLLINIE
 62
    18
 10
62.10642290332192
 20
2.000000000833804
 30
0.0
 11
62.10071223201035
 21
1.333333333320622
 31
0.0
  0
LINE
  5
167
  8
BLATTANSICHT_1_GEOMETRIEAN
  6
VOLLINIE
 62
    18
 10
62.10071223201035
 20
1.333333333320622
 30
0.0
 11
62.10071223201035
 21
0.6666666666539492
 31
0.0
  0
LINE
  5
168
  8
BLATTANSICHT_1_GEOMETRIEAN
  6
VOLLINIE
 62
    18
 10
62.10071223201035
 20
0.6666666666539492
 30
0.0
 11
62.10642290328357
 21
0.0
 31
0.0
  0
LINE
  5
169
  8
BLATTANSICHT_1_GEOMETRIEAN
  6
VOLLINIE
 62
    18
 10
62.15204306429256
 20
2.000000000833804
 30
0.0
 11
62.10642290332192
 21
2.000000000833804
 31
0.0
  0
LINE
  5
16A
  8
BLATTANSICHT_1_GEOMETRIEAN
  6
VOLLINIE
 62
    18
 10
62.24293618928878
 20
2.000000000833804
 30
0.0
 11
62.15204306429256
 21
2.000000000833804
 31
0.0
  0
LINE
  5
16B
  8
BLATTANSICHT_1_GEOMETRIEAN
  6
VOLLINIE
 62
    18
 10
62.37841052675043
 20
2.000000000833804
 30
0.0
 11
62.24293618928878
 21
2.000000000833804
 31
0.0
  0
LINE
  5
16C
  8
BLATTANSICHT_1_GEOMETRIEAN
  6
VOLLINIE
 62
    18
 10
62.55743503517358
 20
2.000000000833804
 30
0.0
 11
62.37841052675043
 21
2.000000000833804
 31
0.0
  0
LINE
  5
16D
  8
BLATTANSICHT_1_GEOMETRIEAN
  6
VOLLINIE
 62
    18
 10
62.71947578236381
 20
2.000000000833804
 30
0.0
 11
62.55743503517358
 21
2.000000000833804
 31
0.0
  0
LINE
  5
16E
  8
BLATTANSICHT_1_GEOMETRIEAN
  6
VOLLINIE
 62
    18
 10
62.90455981063535
 20
2.000000000833804
 30
0.0
 11
62.71947578236381
 21
2.000000000833804
 31
0.0
  0
LINE
  5
16F
  8
BLATTANSICHT_1_GEOMETRIEAN
  6
VOLLINIE
 62
    18
 10
63.11189456174879
 20
2.000000000833804
 30
0.0
 11
62.90455981063535
 21
2.000000000833804
 31
0.0
  0
LINE
  5
170
  8
BLATTANSICHT_1_GEOMETRIEAN
  6
VOLLINIE
 62
    18
 10
65.44698009568206
 20
2.000000000833804
 30
0.0
 11
65.10071223031218
 21
2.000000000833804
 31
0.0
  0
LINE
  5
171
  8
BLATTANSICHT_1_GEOMETRIEAN
  6
VOLLINIE
 62
    18
 10
65.80461164990867
 20
2.000000000833804
 30
0.0
 11
65.44698009568206
 21
2.000000000833804
 31
0.0
  0
LINE
  5
172
  8
BLATTANSICHT_1_GEOMETRIEAN
  6
VOLLINIE
 62
    18
 10
65.10071223031218
 20
2.000000000833804
 30
0.0
 11
64.76729082601564
 21
2.000000000833804
 31
0.0
  0
LINE
  5
173
  8
BLATTANSICHT_1_GEOMETRIEAN
  6
VOLLINIE
 62
    18
 10
66.17207545345252
 20
2.000000000833804
 30
0.0
 11
65.80461164990867
 21
2.000000000833804
 31
0.0
  0
LINE
  5
174
  8
BLATTANSICHT_1_GEOMETRIEAN
  6
VOLLINIE
 62
    18
 10
66.54779797581504
 20
2.000000000833804
 30
0.0
 11
66.17207545345252
 21
2.000000000833804
 31
0.0
  0
LINE
  5
175
  8
BLATTANSICHT_1_GEOMETRIEAN
  6
VOLLINIE
 62
    18
 10
66.93017031546589
 20
2.000000000833804
 30
0.0
 11
66.54779797581504
 21
2.000000000833804
 31
0.0
  0
LINE
  5
176
  8
BLATTANSICHT_1_GEOMETRIEAN
  6
VOLLINIE
 62
    18
 10
67.3175550884044
 20
2.000000000833804
 30
0.0
 11
66.93017031546589
 21
2.000000000833804
 31
0.0
  0
LINE
  5
177
  8
BLATTANSICHT_1_GEOMETRIEAN
  6
VOLLINIE
 62
    18
 10
67.7082934603647
 20
2.000000000833804
 30
0.0
 11
67.3175550884044
 21
2.000000000833804
 31
0.0
  0
LINE
  5
178
  8
BLATTANSICHT_1_GEOMETRIEAN
  6
VOLLINIE
 62
    18
 10
68.10071223201038
 20
1.999999999987295
 30
0.0
 11
67.7082934603647
 21
2.000000000833804
 31
0.0
  0
LINE
  5
179
  8
BLATTANSICHT_1_GEOMETRIEAN
  6
VOLLINIE
 62
    18
 10
65.80461164957283
 20
0.0
 30
0.0
 11
66.17207545316452
 21
0.0
 31
0.0
  0
LINE
  5
17A
  8
BLATTANSICHT_1_GEOMETRIEAN
  6
VOLLINIE
 62
    18
 10
66.17207545316452
 20
0.0
 30
0.0
 11
66.5477979755787
 21
0.0
 31
0.0
  0
LINE
  5
17B
  8
BLATTANSICHT_1_GEOMETRIEAN
  6
VOLLINIE
 62
    18
 10
66.5477979755787
 20
0.0
 30
0.0
 11
66.93017031528414
 21
0.0
 31
0.0
  0
LINE
  5
17C
  8
BLATTANSICHT_1_GEOMETRIEAN
  6
VOLLINIE
 62
    18
 10
66.93017031528414
 20
0.0
 30
0.0
 11
67.31755508828195
 21
0.0
 31
0.0
  0
LINE
  5
17D
  8
BLATTANSICHT_1_GEOMETRIEAN
  6
VOLLINIE
 62
    18
 10
67.31755508828195
 20
0.0
 30
0.0
 11
67.70829346030307
 21
0.0
 31
0.0
  0
LINE
  5
17E
  8
BLATTANSICHT_1_GEOMETRIEAN
  6
VOLLINIE
 62
    18
 10
67.70829346030307
 20
0.0
 30
0.0
 11
68.10071223201038
 21
-0.0000000000127011
 31
0.0
  0
LINE
  5
17F
  8
BLATTANSICHT_1_GEOMETRIEAN
  6
VOLLINIE
 62
    18
 10
64.44814365199898
 20
0.0
 30
0.0
 11
64.76729082557685
 21
0.0
 31
0.0
  0
LINE
  5
180
  8
BLATTANSICHT_1_GEOMETRIEAN
  6
VOLLINIE
 62
    18
 10
64.14463733764245
 20
0.0
 30
0.0
 11
64.44814365199898
 21
0.0
 31
0.0
  0
LINE
  5
181
  8
BLATTANSICHT_1_GEOMETRIEAN
  6
VOLLINIE
 62
    18
 10
63.85807154312435
 20
0.0
 30
0.0
 11
64.14463733764245
 21
0.0
 31
0.0
  0
LINE
  5
182
  8
BLATTANSICHT_1_GEOMETRIEAN
  6
VOLLINIE
 62
    18
 10
64.76729082601564
 20
2.000000000833804
 30
0.0
 11
64.44814365245571
 21
2.000000000833804
 31
0.0
  0
LINE
  5
183
  8
BLATTANSICHT_1_GEOMETRIEAN
  6
VOLLINIE
 62
    18
 10
64.44814365245571
 20
2.000000000833804
 30
0.0
 11
64.14463733811138
 21
2.000000000833804
 31
0.0
  0
LINE
  5
184
  8
BLATTANSICHT_1_GEOMETRIEAN
  6
VOLLINIE
 62
    18
 10
64.14463733811138
 20
2.000000000833804
 30
0.0
 11
63.85807154359932
 21
2.000000000833804
 31
0.0
  0
LINE
  5
185
  8
BLATTANSICHT_1_GEOMETRIEAN
  6
VOLLINIE
 62
    18
 10
63.5896733872559
 20
0.0
 30
0.0
 11
63.85807154312435
 21
0.0
 31
0.0
  0
LINE
  5
186
  8
BLATTANSICHT_1_GEOMETRIEAN
  6
VOLLINIE
 62
    18
 10
63.34059219201657
 20
0.0
 30
0.0
 11
63.5896733872559
 21
0.0
 31
0.0
  0
LINE
  5
187
  8
BLATTANSICHT_1_GEOMETRIEAN
  6
VOLLINIE
 62
    18
 10
63.11189456130996
 20
0.0
 30
0.0
 11
63.34059219201657
 21
0.0
 31
0.0
  0
LINE
  5
188
  8
BLATTANSICHT_1_GEOMETRIEAN
  6
VOLLINIE
 62
    18
 10
63.85807154359932
 20
2.000000000833804
 30
0.0
 11
63.58967338772474
 21
2.000000000833804
 31
0.0
  0
LINE
  5
189
  8
BLATTANSICHT_1_GEOMETRIEAN
  6
VOLLINIE
 62
    18
 10
63.58967338772474
 20
2.000000000833804
 30
0.0
 11
63.34059219247341
 21
2.000000000833804
 31
0.0
  0
LINE
  5
18A
  8
BLATTANSICHT_1_GEOMETRIEAN
  6
VOLLINIE
 62
    18
 10
63.34059219247341
 20
2.000000000833804
 30
0.0
 11
63.11189456174879
 21
2.000000000833804
 31
0.0
  0
LINE
  5
18B
  8
BLATTANSICHT_1_GEOMETRIEAN
  6
VOLLINIE
 62
    18
 10
62.9045598102258
 20
0.0
 30
0.0
 11
63.11189456130996
 21
0.0
 31
0.0
  0
LINE
  5
18C
  8
BLATTANSICHT_1_GEOMETRIEAN
  6
VOLLINIE
 62
    18
 10
62.71947578198859
 20
0.0
 30
0.0
 11
62.9045598102258
 21
0.0
 31
0.0
  0
LINE
  5
18D
  8
BLATTANSICHT_1_GEOMETRIEAN
  6
VOLLINIE
 62
    18
 10
62.55743503483771
 20
0.0
 30
0.0
 11
62.71947578198859
 21
0.0
 31
0.0
  0
LINE
  5
18E
  8
BLATTANSICHT_1_GEOMETRIEAN
  6
VOLLINIE
 62
    18
 10
62.15204306417795
 20
0.0
 30
0.0
 11
62.24293618909878
 21
0.0
 31
0.0
  0
LINE
  5
18F
  8
BLATTANSICHT_1_GEOMETRIEAN
  6
VOLLINIE
 62
    18
 10
62.24293618909878
 20
0.0
 30
0.0
 11
62.37841052648653
 21
0.0
 31
0.0
  0
LINE
  5
190
  8
BLATTANSICHT_1_GEOMETRIEAN
  6
VOLLINIE
 62
    18
 10
62.10642290328357
 20
0.0
 30
0.0
 11
62.15204306417795
 21
0.0
 31
0.0
  0
LINE
  5
191
  8
BLATTANSICHT_1_GEOMETRIEAN
  6
VOLLINIE
 62
    18
 10
62.37841052648653
 20
0.0
 30
0.0
 11
62.55743503483771
 21
0.0
 31
0.0
  0
LINE
  5
192
  8
BLATTANSICHT_1_GEOMETRIEAN
  6
VOLLINIE
 62
    18
 10
67.85976057364408
 20
2.000000000833804
 30
0.0
 11
67.70077708073991
 21
2.000000000833804
 31
0.0
  0
LINE
  5
193
  8
BLATTANSICHT_1_GEOMETRIEAN
  6
VOLLINIE
 62
    18
 10
68.02022961360494
 20
2.000000000833804
 30
0.0
 11
67.85976057364408
 21
2.000000000833804
 31
0.0
  0
LINE
  5
194
  8
BLATTANSICHT_1_GEOMETRIEAN
  6
VOLLINIE
 62
    18
 10
68.18119485566123
 20
2.000000000833804
 30
0.0
 11
68.02022961360494
 21
2.000000000833804
 31
0.0
  0
LINE
  5
195
  8
BLATTANSICHT_1_GEOMETRIEAN
  6
VOLLINIE
 62
    18
 10
68.34166389560079
 20
2.000000000833804
 30
0.0
 11
68.18119485566123
 21
2.000000000833804
 31
0.0
  0
LINE
  5
196
  8
BLATTANSICHT_1_GEOMETRIEAN
  6
VOLLINIE
 62
    18
 10
68.50064738846243
 20
2.000000000833804
 30
0.0
 11
68.34166389560079
 21
2.000000000833804
 31
0.0
  0
LINE
  5
197
  8
BLATTANSICHT_1_GEOMETRIEAN
  6
VOLLINIE
 62
    18
 10
68.63129126697822
 20
2.000000000833804
 30
0.0
 11
68.50064738846243
 21
2.000000000833804
 31
0.0
  0
LINE
  5
198
  8
BLATTANSICHT_1_GEOMETRIEAN
  6
VOLLINIE
 62
    18
 10
68.75966312475018
 20
2.000000000833804
 30
0.0
 11
68.63129126697822
 21
2.000000000833804
 31
0.0
  0
LINE
  5
199
  8
BLATTANSICHT_1_GEOMETRIEAN
  6
VOLLINIE
 62
    18
 10
68.88521325380813
 20
2.000000000833804
 30
0.0
 11
68.75966312475018
 21
2.000000000833804
 31
0.0
  0
LINE
  5
19A
  8
BLATTANSICHT_1_GEOMETRIEAN
  6
VOLLINIE
 62
    18
 10
69.0074040355493
 20
2.000000000833804
 30
0.0
 11
68.88521325380813
 21
2.000000000833804
 31
0.0
  0
LINE
  5
19B
  8
BLATTANSICHT_1_GEOMETRIEAN
  6
VOLLINIE
 62
    18
 10
69.12571222362023
 20
2.000000000833804
 30
0.0
 11
69.0074040355493
 21
2.000000000833804
 31
0.0
  0
LINE
  5
19C
  8
BLATTANSICHT_1_GEOMETRIEAN
  6
VOLLINIE
 62
    18
 10
69.23963120417395
 20
2.000000000833804
 30
0.0
 11
69.12571222362023
 21
2.000000000833804
 31
0.0
  0
LINE
  5
19D
  8
BLATTANSICHT_1_GEOMETRIEAN
  6
VOLLINIE
 62
    18
 10
69.34867316072598
 20
2.000000000833804
 30
0.0
 11
69.23963120417395
 21
2.000000000833804
 31
0.0
  0
LINE
  5
19E
  8
BLATTANSICHT_1_GEOMETRIEAN
  6
VOLLINIE
 62
    18
 10
69.45237115654496
 20
2.000000000833804
 30
0.0
 11
69.34867316072598
 21
2.000000000833804
 31
0.0
  0
LINE
  5
19F
  8
BLATTANSICHT_1_GEOMETRIEAN
  6
VOLLINIE
 62
    18
 10
69.55028114085538
 20
2.000000000833804
 30
0.0
 11
69.45237115654496
 21
2.000000000833804
 31
0.0
  0
LINE
  5
1A0
  8
BLATTANSICHT_1_GEOMETRIEAN
  6
VOLLINIE
 62
    18
 10
69.64198384474858
 20
2.000000000833804
 30
0.0
 11
69.55028114085538
 21
2.000000000833804
 31
0.0
  0
LINE
  5
1A1
  8
BLATTANSICHT_1_GEOMETRIEAN
  6
VOLLINIE
 62
    18
 10
69.72708658691478
 20
2.000000000833804
 30
0.0
 11
69.64198384474858
 21
2.000000000833804
 31
0.0
  0
LINE
  5
1A2
  8
BLATTANSICHT_1_GEOMETRIEAN
  6
VOLLINIE
 62
    18
 10
69.80522494434322
 20
2.000000000833804
 30
0.0
 11
69.72708658691478
 21
2.000000000833804
 31
0.0
  0
LINE
  5
1A3
  8
BLATTANSICHT_1_GEOMETRIEAN
  6
VOLLINIE
 62
    18
 10
69.87606431325851
 20
2.000000000833804
 30
0.0
 11
69.80522494434322
 21
2.000000000833804
 31
0.0
  0
LINE
  5
1A4
  8
BLATTANSICHT_1_GEOMETRIEAN
  6
VOLLINIE
 62
    18
 10
69.93930135268846
 20
2.000000000833804
 30
0.0
 11
69.87606431325851
 21
2.000000000833804
 31
0.0
  0
LINE
  5
1A5
  8
BLATTANSICHT_1_GEOMETRIEAN
  6
VOLLINIE
 62
    18
 10
69.99466527194616
 20
2.000000000833804
 30
0.0
 11
69.93930135268846
 21
2.000000000833804
 31
0.0
  0
LINE
  5
1A6
  8
BLATTANSICHT_1_GEOMETRIEAN
  6
VOLLINIE
 62
    18
 10
70.04191899634134
 20
2.000000000833804
 30
0.0
 11
69.99466527194616
 21
2.000000000833804
 31
0.0
  0
LINE
  5
1A7
  8
BLATTANSICHT_1_GEOMETRIEAN
  6
VOLLINIE
 62
    18
 10
70.0808601752937
 20
2.000000000833804
 30
0.0
 11
70.04191899634134
 21
2.000000000833804
 31
0.0
  0
LINE
  5
1A8
  8
BLATTANSICHT_1_GEOMETRIEAN
  6
VOLLINIE
 62
    18
 10
70.1113220566954
 20
2.000000000833804
 30
0.0
 11
70.0808601752937
 21
2.000000000833804
 31
0.0
  0
LINE
  5
1A9
  8
BLATTANSICHT_1_GEOMETRIEAN
  6
VOLLINIE
 62
    18
 10
70.13317419825955
 20
2.000000000833804
 30
0.0
 11
70.1113220566954
 21
2.000000000833804
 31
0.0
  0
LINE
  5
1AA
  8
BLATTANSICHT_1_GEOMETRIEAN
  6
VOLLINIE
 62
    18
 10
70.14632302542785
 20
2.000000000833804
 30
0.0
 11
70.13317419825955
 21
2.000000000833804
 31
0.0
  0
LINE
  5
1AB
  8
BLATTANSICHT_1_GEOMETRIEAN
  6
VOLLINIE
 62
    18
 10
91.1205642903918
 20
2.000000000833793
 30
0.0
 11
91.09010240904114
 21
2.000000000833793
 31
0.0
  0
LINE
  5
1AC
  8
BLATTANSICHT_1_GEOMETRIEAN
  6
VOLLINIE
 62
    18
 10
91.15950546927955
 20
2.000000000833793
 30
0.0
 11
91.1205642903918
 21
2.000000000833793
 31
0.0
  0
LINE
  5
1AD
  8
BLATTANSICHT_1_GEOMETRIEAN
  6
VOLLINIE
 62
    18
 10
91.20675919359708
 20
2.000000000833793
 30
0.0
 11
91.15950546927955
 21
2.000000000833793
 31
0.0
  0
LINE
  5
1AE
  8
BLATTANSICHT_1_GEOMETRIEAN
  6
VOLLINIE
 62
    18
 10
91.2621231127686
 20
2.000000000833793
 30
0.0
 11
91.20675919359708
 21
2.000000000833793
 31
0.0
  0
LINE
  5
1AF
  8
BLATTANSICHT_1_GEOMETRIEAN
  6
VOLLINIE
 62
    18
 10
91.32536015210185
 20
2.000000000833793
 30
0.0
 11
91.2621231127686
 21
2.000000000833793
 31
0.0
  0
LINE
  5
1B0
  8
BLATTANSICHT_1_GEOMETRIEAN
  6
VOLLINIE
 62
    18
 10
91.39619952091066
 20
2.000000000833793
 30
0.0
 11
91.32536015210185
 21
2.000000000833793
 31
0.0
  0
LINE
  5
1B1
  8
BLATTANSICHT_1_GEOMETRIEAN
  6
VOLLINIE
 62
    18
 10
91.47433787823158
 20
2.000000000833793
 30
0.0
 11
91.39619952091066
 21
2.000000000833793
 31
0.0
  0
LINE
  5
1B2
  8
BLATTANSICHT_1_GEOMETRIEAN
  6
VOLLINIE
 62
    18
 10
91.55944062028364
 20
2.000000000833793
 30
0.0
 11
91.47433787823158
 21
2.000000000833793
 31
0.0
  0
LINE
  5
1B3
  8
BLATTANSICHT_1_GEOMETRIEAN
  6
VOLLINIE
 62
    18
 10
91.65114332405722
 20
2.000000000833793
 30
0.0
 11
91.55944062028364
 21
2.000000000833793
 31
0.0
  0
LINE
  5
1B4
  8
BLATTANSICHT_1_GEOMETRIEAN
  6
VOLLINIE
 62
    18
 10
91.74905330825565
 20
2.000000000833793
 30
0.0
 11
91.65114332405722
 21
2.000000000833793
 31
0.0
  0
LINE
  5
1B5
  8
BLATTANSICHT_1_GEOMETRIEAN
  6
VOLLINIE
 62
    18
 10
91.85275130396053
 20
2.000000000833793
 30
0.0
 11
91.74905330825565
 21
2.000000000833793
 31
0.0
  0
LINE
  5
1B6
  8
BLATTANSICHT_1_GEOMETRIEAN
  6
VOLLINIE
 62
    18
 10
91.96179326039737
 20
2.000000000833793
 30
0.0
 11
91.85275130396053
 21
2.000000000833793
 31
0.0
  0
LINE
  5
1B7
  8
BLATTANSICHT_1_GEOMETRIEAN
  6
VOLLINIE
 62
    18
 10
92.07571224085223
 20
2.000000000833793
 30
0.0
 11
91.96179326039737
 21
2.000000000833793
 31
0.0
  0
LINE
  5
1B8
  8
BLATTANSICHT_1_GEOMETRIEAN
  6
VOLLINIE
 62
    18
 10
92.19402042882642
 20
2.000000000833793
 30
0.0
 11
92.07571224085223
 21
2.000000000833793
 31
0.0
  0
LINE
  5
1B9
  8
BLATTANSICHT_1_GEOMETRIEAN
  6
VOLLINIE
 62
    18
 10
92.31621121047382
 20
2.000000000833793
 30
0.0
 11
92.19402042882642
 21
2.000000000833793
 31
0.0
  0
LINE
  5
1BA
  8
BLATTANSICHT_1_GEOMETRIEAN
  6
VOLLINIE
 62
    18
 10
92.44176133946176
 20
2.000000000833793
 30
0.0
 11
92.31621121047382
 21
2.000000000833793
 31
0.0
  0
LINE
  5
1BB
  8
BLATTANSICHT_1_GEOMETRIEAN
  6
VOLLINIE
 62
    18
 10
92.57013319716911
 20
2.000000000833793
 30
0.0
 11
92.44176133946176
 21
2.000000000833793
 31
0.0
  0
LINE
  5
1BC
  8
BLATTANSICHT_1_GEOMETRIEAN
  6
VOLLINIE
 62
    18
 10
92.7007770756262
 20
2.000000000833793
 30
0.0
 11
92.57013319716911
 21
2.000000000833793
 31
0.0
  0
LINE
  5
1BD
  8
BLATTANSICHT_1_GEOMETRIEAN
  6
VOLLINIE
 62
    18
 10
92.85976056846636
 20
2.000000000833793
 30
0.0
 11
92.7007770756262
 21
2.000000000833793
 31
0.0
  0
LINE
  5
1BE
  8
BLATTANSICHT_1_GEOMETRIEAN
  6
VOLLINIE
 62
    18
 10
93.02022960839514
 20
2.000000000833793
 30
0.0
 11
92.85976056846636
 21
2.000000000833793
 31
0.0
  0
LINE
  5
1BF
  8
BLATTANSICHT_1_GEOMETRIEAN
  6
VOLLINIE
 62
    18
 10
93.10071222970221
 20
2.000000000833793
 30
0.0
 11
93.02022960839514
 21
2.000000000833793
 31
0.0
  0
LINE
  5
1C0
  8
BLATTANSICHT_1_GEOMETRIEAN
  6
VOLLINIE
 62
    18
 10
94.12571222963687
 20
2.000000000833804
 30
0.0
 11
94.00740405197546
 21
2.000000000833804
 31
0.0
  0
LINE
  5
1C1
  8
BLATTANSICHT_1_GEOMETRIEAN
  6
VOLLINIE
 62
    18
 10
95.08086017493923
 20
2.000000000833804
 30
0.0
 11
95.04191899579422
 21
2.000000000833804
 31
0.0
  0
LINE
  5
1C2
  8
BLATTANSICHT_1_GEOMETRIEAN
  6
VOLLINIE
 62
    18
 10
95.14632302540524
 20
2.000000000833804
 30
0.0
 11
95.13317419816931
 21
2.000000000833804
 31
0.0
  0
LINE
  5
1C3
  8
BLATTANSICHT_1_GEOMETRIEAN
  6
VOLLINIE
 62
    18
 10
91.09010240904114
 20
2.000000000833793
 30
0.0
 11
91.06825026747802
 21
2.000000000833793
 31
0.0
  0
LINE
  5
1C4
  8
BLATTANSICHT_1_GEOMETRIEAN
  6
VOLLINIE
 62
    18
 10
91.06825026747802
 20
2.000000000833793
 30
0.0
 11
91.05510144033232
 21
2.000000000833793
 31
0.0
  0
LINE
  5
1C5
  8
BLATTANSICHT_1_GEOMETRIEAN
  6
VOLLINIE
 62
    18
 10
70.60071223201035
 20
9.999999999987297
 30
0.0
 11
70.60071223201035
 21
8.2736339739873
 31
0.0
  0
LINE
  5
1C6
  8
BLATTANSICHT_1_GEOMETRIEAN
  6
VOLLINIE
 62
    18
 10
90.60071223201037
 20
9.999999999987297
 30
0.0
 11
70.60071223201035
 21
9.999999999987297
 31
0.0
  0
LINE
  5
1C7
  8
BLATTANSICHT_1_GEOMETRIEAN
  6
VOLLINIE
 62
    18
 10
90.60071223201037
 20
8.2736339739873
 30
0.0
 11
90.60071223201037
 21
9.999999999987297
 31
0.0
  0
LINE
  5
1C8
  8
BLATTANSICHT_1_GEOMETRIEAN
  6
VOLLINIE
 62
    18
 10
70.60071223201035
 20
8.2736339739873
 30
0.0
 11
70.60071223201035
 21
6.657957533032741
 31
0.0
  0
LINE
  5
1C9
  8
BLATTANSICHT_1_GEOMETRIEAN
  6
VOLLINIE
 62
    18
 10
90.60071223201037
 20
8.2736339739873
 30
0.0
 11
70.60071223201035
 21
8.2736339739873
 31
0.0
  0
LINE
  5
1CA
  8
BLATTANSICHT_1_GEOMETRIEAN
  6
VOLLINIE
 62
    18
 10
90.60071223201037
 20
6.657957533032741
 30
0.0
 11
90.60071223201037
 21
8.2736339739873
 31
0.0
  0
LINE
  5
1CB
  8
BLATTANSICHT_1_GEOMETRIEAN
  6
VOLLINIE
 62
    18
 10
90.60071223284417
 20
3.852952388945151
 30
0.0
 11
90.60071223284417
 21
4.012274195913542
 31
0.0
  0
LINE
  5
1CC
  8
BLATTANSICHT_1_GEOMETRIEAN
  6
VOLLINIE
 62
    18
 10
90.60071223284417
 20
3.696401339161222
 30
0.0
 11
90.60071223284417
 21
3.852952388945151
 31
0.0
  0
LINE
  5
1CD
  8
BLATTANSICHT_1_GEOMETRIEAN
  6
VOLLINIE
 62
    18
 10
90.60071223284417
 20
3.54329142218473
 30
0.0
 11
90.60071223284417
 21
3.696401339161222
 31
0.0
  0
LINE
  5
1CE
  8
BLATTANSICHT_1_GEOMETRIEAN
  6
VOLLINIE
 62
    18
 10
90.60071223284417
 20
3.352545340703067
 30
0.0
 11
90.60071223284417
 21
3.54329142218473
 31
0.0
  0
LINE
  5
1CF
  8
BLATTANSICHT_1_GEOMETRIEAN
  6
VOLLINIE
 62
    18
 10
90.60071223284417
 20
3.169919809449682
 30
0.0
 11
90.60071223284417
 21
3.352545340703067
 31
0.0
  0
LINE
  5
1D0
  8
BLATTANSICHT_1_GEOMETRIEAN
  6
VOLLINIE
 62
    18
 10
90.60071223284417
 20
2.996707271473598
 30
0.0
 11
90.60071223284417
 21
3.169919809449682
 31
0.0
  0
LINE
  5
1D1
  8
BLATTANSICHT_1_GEOMETRIEAN
  6
VOLLINIE
 62
    18
 10
90.60071223284417
 20
2.834133553958768
 30
0.0
 11
90.60071223284417
 21
2.996707271473598
 31
0.0
  0
LINE
  5
1D2
  8
BLATTANSICHT_1_GEOMETRIEAN
  6
VOLLINIE
 62
    18
 10
90.60071223284417
 20
2.68334919303071
 30
0.0
 11
90.60071223284417
 21
2.834133553958768
 31
0.0
  0
LINE
  5
1D3
  8
BLATTANSICHT_1_GEOMETRIEAN
  6
VOLLINIE
 62
    18
 10
90.60071223284417
 20
2.545421291398662
 30
0.0
 11
90.60071223284417
 21
2.68334919303071
 31
0.0
  0
LINE
  5
1D4
  8
BLATTANSICHT_1_GEOMETRIEAN
  6
VOLLINIE
 62
    18
 10
90.60071223284417
 20
2.421325966457048
 30
0.0
 11
90.60071223284417
 21
2.545421291398662
 31
0.0
  0
LINE
  5
1D5
  8
BLATTANSICHT_1_GEOMETRIEAN
  6
VOLLINIE
 62
    18
 10
90.60071223284417
 20
2.334936489972151
 30
0.0
 11
90.60071223284417
 21
2.421325966457048
 31
0.0
  0
LINE
  5
1D6
  8
BLATTANSICHT_1_GEOMETRIEAN
  6
VOLLINIE
 62
    18
 10
90.60071223284417
 20
2.257818147406807
 30
0.0
 11
90.60071223284417
 21
2.334936489972151
 31
0.0
  0
LINE
  5
1D7
  8
BLATTANSICHT_1_GEOMETRIEAN
  6
VOLLINIE
 62
    18
 10
90.60071223284417
 20
2.190301171328324
 30
0.0
 11
90.60071223284417
 21
2.257818147406807
 31
0.0
  0
LINE
  5
1D8
  8
BLATTANSICHT_1_GEOMETRIEAN
  6
VOLLINIE
 62
    18
 10
90.60071223284417
 20
2.132674678560888
 30
0.0
 11
90.60071223284417
 21
2.190301171328324
 31
0.0
  0
LINE
  5
1D9
  8
BLATTANSICHT_1_GEOMETRIEAN
  6
VOLLINIE
 62
    18
 10
90.60071223284422
 20
2.08518543627197
 30
0.0
 11
90.60071223284417
 21
2.132674678560888
 31
0.0
  0
LINE
  5
1DA
  8
BLATTANSICHT_1_GEOMETRIEAN
  6
VOLLINIE
 62
    18
 10
90.60071223284417
 20
2.048036800687944
 30
0.0
 11
90.60071223284422
 21
2.08518543627197
 31
0.0
  0
LINE
  5
1DB
  8
BLATTANSICHT_1_GEOMETRIEAN
  6
VOLLINIE
 62
    18
 10
90.60071223284422
 20
2.021387847749034
 30
0.0
 11
90.60071223284417
 21
2.048036800687944
 31
0.0
  0
LINE
  5
1DC
  8
BLATTANSICHT_1_GEOMETRIEAN
  6
VOLLINIE
 62
    18
 10
90.60071223284422
 20
2.005352692802961
 30
0.0
 11
90.60071223284422
 21
2.021387847749034
 31
0.0
  0
LINE
  5
1DD
  8
BLATTANSICHT_1_GEOMETRIEAN
  6
VOLLINIE
 62
    18
 10
90.60071223201037
 20
1.999999999987295
 30
0.0
 11
90.60071223284422
 21
2.005352692802961
 31
0.0
  0
LINE
  5
1DE
  8
BLATTANSICHT_1_GEOMETRIEAN
  6
VOLLINIE
 62
    18
 10
70.60071223201035
 20
2.005352691947452
 30
0.0
 11
70.60071223201035
 21
1.999999999987295
 31
0.0
  0
LINE
  5
1DF
  8
BLATTANSICHT_1_GEOMETRIEAN
  6
VOLLINIE
 62
    18
 10
70.60071223201035
 20
2.021387846904443
 30
0.0
 11
70.60071223201035
 21
2.005352691947452
 31
0.0
  0
LINE
  5
1E0
  8
BLATTANSICHT_1_GEOMETRIEAN
  6
VOLLINIE
 62
    18
 10
70.60071223201035
 20
2.048036799861479
 30
0.0
 11
70.60071223201035
 21
2.021387846904443
 31
0.0
  0
LINE
  5
1E1
  8
BLATTANSICHT_1_GEOMETRIEAN
  6
VOLLINIE
 62
    18
 10
70.60071223201035
 20
2.085185435470096
 30
0.0
 11
70.60071223201035
 21
2.048036799861479
 31
0.0
  0
LINE
  5
1E2
  8
BLATTANSICHT_1_GEOMETRIEAN
  6
VOLLINIE
 62
    18
 10
70.60071223201035
 20
2.132674677790135
 30
0.0
 11
70.60071223201035
 21
2.085185435470096
 31
0.0
  0
LINE
  5
1E3
  8
BLATTANSICHT_1_GEOMETRIEAN
  6
VOLLINIE
 62
    18
 10
70.60071223201035
 20
2.190301170594974
 30
0.0
 11
70.60071223201035
 21
2.132674677790135
 31
0.0
  0
LINE
  5
1E4
  8
BLATTANSICHT_1_GEOMETRIEAN
  6
VOLLINIE
 62
    18
 10
70.60071223201035
 20
2.257818146714956
 30
0.0
 11
70.60071223201035
 21
2.190301170594974
 31
0.0
  0
LINE
  5
1E5
  8
BLATTANSICHT_1_GEOMETRIEAN
  6
VOLLINIE
 62
    18
 10
70.60071223201035
 20
2.334936489326886
 30
0.0
 11
70.60071223201035
 21
2.257818146714956
 31
0.0
  0
LINE
  5
1E6
  8
BLATTANSICHT_1_GEOMETRIEAN
  6
VOLLINIE
 62
    18
 10
70.60071223201035
 20
2.421325965863073
 30
0.0
 11
70.60071223201035
 21
2.334936489326886
 31
0.0
  0
LINE
  5
1E7
  8
BLATTANSICHT_1_GEOMETRIEAN
  6
VOLLINIE
 62
    18
 10
70.60071223201035
 20
2.545421290865282
 30
0.0
 11
70.60071223201035
 21
2.421325965863073
 31
0.0
  0
LINE
  5
1E8
  8
BLATTANSICHT_1_GEOMETRIEAN
  6
VOLLINIE
 62
    18
 10
70.60071223201035
 20
2.683349192561581
 30
0.0
 11
70.60071223201035
 21
2.545421290865282
 31
0.0
  0
LINE
  5
1E9
  8
BLATTANSICHT_1_GEOMETRIEAN
  6
VOLLINIE
 62
    18
 10
70.60071223201035
 20
2.834133553556641
 30
0.0
 11
70.60071223201035
 21
2.683349192561581
 31
0.0
  0
LINE
  5
1EA
  8
BLATTANSICHT_1_GEOMETRIEAN
  6
VOLLINIE
 62
    18
 10
70.60071223201035
 20
2.9967072711403
 30
0.0
 11
70.60071223201035
 21
2.834133553556641
 31
0.0
  0
LINE
  5
1EB
  8
BLATTANSICHT_1_GEOMETRIEAN
  6
VOLLINIE
 62
    18
 10
70.60071223201035
 20
3.169919809186072
 30
0.0
 11
70.60071223201035
 21
2.9967072711403
 31
0.0
  0
LINE
  5
1EC
  8
BLATTANSICHT_1_GEOMETRIEAN
  6
VOLLINIE
 62
    18
 10
70.60071223201035
 20
3.35254534050894
 30
0.0
 11
70.60071223201035
 21
3.169919809186072
 31
0.0
  0
LINE
  5
1ED
  8
BLATTANSICHT_1_GEOMETRIEAN
  6
VOLLINIE
 62
    18
 10
70.60071223201035
 20
3.543291422058892
 30
0.0
 11
70.60071223201035
 21
3.35254534050894
 31
0.0
  0
LINE
  5
1EE
  8
BLATTANSICHT_1_GEOMETRIEAN
  6
VOLLINIE
 62
    18
 10
70.60071223201035
 20
3.696401339069133
 30
0.0
 11
70.60071223201035
 21
3.543291422058892
 31
0.0
  0
LINE
  5
1EF
  8
BLATTANSICHT_1_GEOMETRIEAN
  6
VOLLINIE
 62
    18
 10
70.60071223201035
 20
3.852952388884195
 30
0.0
 11
70.60071223201035
 21
3.696401339069133
 31
0.0
  0
LINE
  5
1F0
  8
BLATTANSICHT_1_GEOMETRIEAN
  6
VOLLINIE
 62
    18
 10
70.60071223201035
 20
4.012274195880853
 30
0.0
 11
70.60071223201035
 21
3.852952388884195
 31
0.0
  0
LINE
  5
1F1
  8
BLATTANSICHT_1_GEOMETRIEAN
  6
VOLLINIE
 62
    18
 10
90.60071223284417
 20
4.012274195913542
 30
0.0
 11
90.60071223284417
 21
4.173684519936399
 31
0.0
  0
LINE
  5
1F2
  8
BLATTANSICHT_1_GEOMETRIEAN
  6
VOLLINIE
 62
    18
 10
90.60071223284417
 20
4.173684519936399
 30
0.0
 11
90.60071223284417
 21
4.336492176937305
 31
0.0
  0
LINE
  5
1F3
  8
BLATTANSICHT_1_GEOMETRIEAN
  6
VOLLINIE
 62
    18
 10
90.60071223284417
 20
4.336492176937305
 30
0.0
 11
90.60071223201037
 21
4.499999999987308
 31
0.0
  0
LINE
  5
1F4
  8
BLATTANSICHT_1_GEOMETRIEAN
  6
VOLLINIE
 62
    18
 10
70.60071223201035
 20
4.173684519918126
 30
0.0
 11
70.60071223201035
 21
4.012274195880853
 31
0.0
  0
LINE
  5
1F5
  8
BLATTANSICHT_1_GEOMETRIEAN
  6
VOLLINIE
 62
    18
 10
70.60071223201035
 20
4.336492176929973
 30
0.0
 11
70.60071223201035
 21
4.173684519918126
 31
0.0
  0
LINE
  5
1F6
  8
BLATTANSICHT_1_GEOMETRIEAN
  6
VOLLINIE
 62
    18
 10
70.60071223201035
 20
4.499999999987308
 30
0.0
 11
70.60071223201035
 21
4.336492176929973
 31
0.0
  0
LINE
  5
1F7
  8
BLATTANSICHT_1_GEOMETRIEAN
  6
VOLLINIE
 62
    18
 10
93.10071222970221
 20
1.999999999987295
 30
0.0
 11
68.10071223201038
 21
1.999999999987295
 31
0.0
  0
LINE
  5
1F8
  8
BLATTANSICHT_1_GEOMETRIEAN
  6
VOLLINIE
 62
    18
 10
68.10071223201038
 20
1.999999999987295
 30
0.0
 11
68.10071223201038
 21
-0.0000000000127011
 31
0.0
  0
LINE
  5
1F9
  8
BLATTANSICHT_1_GEOMETRIEAN
  6
VOLLINIE
 62
    18
 10
68.10071223201038
 20
-0.0000000000127011
 30
0.0
 11
93.10071222970221
 21
-0.0000000000127011
 31
0.0
  0
LINE
  5
1FA
  8
BLATTANSICHT_1_GEOMETRIEAN
  6
VOLLINIE
 62
    18
 10
90.60071223284417
 20
6.407514205539415
 30
0.0
 11
90.60071223284417
 21
6.540416661333325
 31
0.0
  0
LINE
  5
1FB
  8
BLATTANSICHT_1_GEOMETRIEAN
  6
VOLLINIE
 62
    18
 10
90.60071223284417
 20
6.260250741912381
 30
0.0
 11
90.60071223284417
 21
6.407514205539415
 31
0.0
  0
LINE
  5
1FC
  8
BLATTANSICHT_1_GEOMETRIEAN
  6
VOLLINIE
 62
    18
 10
90.60071223284417
 20
6.099734965605715
 30
0.0
 11
90.60071223284417
 21
6.260250741912381
 31
0.0
  0
LINE
  5
1FD
  8
BLATTANSICHT_1_GEOMETRIEAN
  6
VOLLINIE
 62
    18
 10
90.60071223284417
 20
5.927175343803808
 30
0.0
 11
90.60071223284417
 21
6.099734965605715
 31
0.0
  0
LINE
  5
1FE
  8
BLATTANSICHT_1_GEOMETRIEAN
  6
VOLLINIE
 62
    18
 10
90.60071223284417
 20
5.743871017594843
 30
0.0
 11
90.60071223284417
 21
5.927175343803808
 31
0.0
  0
LINE
  5
1FF
  8
BLATTANSICHT_1_GEOMETRIEAN
  6
VOLLINIE
 62
    18
 10
90.60071223284417
 20
6.540416661333325
 30
0.0
 11
90.60071223201037
 21
6.657957533032741
 31
0.0
  0
LINE
  5
200
  8
BLATTANSICHT_1_GEOMETRIEAN
  6
VOLLINIE
 62
    18
 10
90.60071223284417
 20
5.551202021960246
 30
0.0
 11
90.60071223284417
 21
5.743871017594843
 31
0.0
  0
LINE
  5
201
  8
BLATTANSICHT_1_GEOMETRIEAN
  6
VOLLINIE
 62
    18
 10
90.60071223284417
 20
5.350618893729147
 30
0.0
 11
90.60071223284417
 21
5.551202021960246
 31
0.0
  0
LINE
  5
202
  8
BLATTANSICHT_1_GEOMETRIEAN
  6
VOLLINIE
 62
    18
 10
90.60071223284417
 20
5.143631753164481
 30
0.0
 11
90.60071223284417
 21
5.350618893729147
 31
0.0
  0
LINE
  5
203
  8
BLATTANSICHT_1_GEOMETRIEAN
  6
VOLLINIE
 62
    18
 10
90.60071223284422
 20
4.931798935377575
 30
0.0
 11
90.60071223284417
 21
5.143631753164481
 31
0.0
  0
LINE
  5
204
  8
BLATTANSICHT_1_GEOMETRIEAN
  6
VOLLINIE
 62
    18
 10
90.60071223284422
 20
4.716715254372856
 30
0.0
 11
90.60071223284422
 21
4.931798935377575
 31
0.0
  0
LINE
  5
205
  8
BLATTANSICHT_1_GEOMETRIEAN
  6
VOLLINIE
 62
    18
 10
90.60071223201037
 20
4.499999999987308
 30
0.0
 11
90.60071223284422
 21
4.716715254372856
 31
0.0
  0
LINE
  5
206
  8
BLATTANSICHT_1_GEOMETRIEAN
  6
VOLLINIE
 62
    18
 10
70.60071223201035
 20
4.499999999987308
 30
0.0
 11
90.60071223201037
 21
4.499999999987308
 31
0.0
  0
LINE
  5
207
  8
BLATTANSICHT_1_GEOMETRIEAN
  6
VOLLINIE
 62
    18
 10
70.60071223201035
 20
4.716715254380909
 30
0.0
 11
70.60071223201035
 21
4.499999999987308
 31
0.0
  0
LINE
  5
208
  8
BLATTANSICHT_1_GEOMETRIEAN
  6
VOLLINIE
 62
    18
 10
70.60071223201035
 20
4.931798935391742
 30
0.0
 11
70.60071223201035
 21
4.716715254380909
 31
0.0
  0
LINE
  5
209
  8
BLATTANSICHT_1_GEOMETRIEAN
  6
VOLLINIE
 62
    18
 10
70.60071223201035
 20
5.143631753182552
 30
0.0
 11
70.60071223201035
 21
4.931798935391742
 31
0.0
  0
LINE
  5
20A
  8
BLATTANSICHT_1_GEOMETRIEAN
  6
VOLLINIE
 62
    18
 10
70.60071223201035
 20
5.350618893743269
 30
0.0
 11
70.60071223201035
 21
5.143631753182552
 31
0.0
  0
LINE
  5
20B
  8
BLATTANSICHT_1_GEOMETRIEAN
  6
VOLLINIE
 62
    18
 10
70.60071223201035
 20
5.551202021968344
 30
0.0
 11
70.60071223201035
 21
5.350618893743269
 31
0.0
  0
LINE
  5
20C
  8
BLATTANSICHT_1_GEOMETRIEAN
  6
VOLLINIE
 62
    18
 10
70.60071223201035
 20
5.743871017594866
 30
0.0
 11
70.60071223201035
 21
5.551202021968344
 31
0.0
  0
LINE
  5
20D
  8
BLATTANSICHT_1_GEOMETRIEAN
  6
VOLLINIE
 62
    18
 10
70.60071223201035
 20
5.927175343786233
 30
0.0
 11
70.60071223201035
 21
5.743871017594866
 31
0.0
  0
LINE
  5
20E
  8
BLATTANSICHT_1_GEOMETRIEAN
  6
VOLLINIE
 62
    18
 10
70.60071223201035
 20
6.099734965569461
 30
0.0
 11
70.60071223201035
 21
5.927175343786233
 31
0.0
  0
LINE
  5
20F
  8
BLATTANSICHT_1_GEOMETRIEAN
  6
VOLLINIE
 62
    18
 10
70.60071223201035
 20
6.260250741856636
 30
0.0
 11
70.60071223201035
 21
6.099734965569461
 31
0.0
  0
LINE
  5
210
  8
BLATTANSICHT_1_GEOMETRIEAN
  6
VOLLINIE
 62
    18
 10
70.60071223201035
 20
6.407514205463569
 30
0.0
 11
70.60071223201035
 21
6.260250741856636
 31
0.0
  0
LINE
  5
211
  8
BLATTANSICHT_1_GEOMETRIEAN
  6
VOLLINIE
 62
    18
 10
70.60071223201035
 20
6.54041666123695
 30
0.0
 11
70.60071223201035
 21
6.407514205463569
 31
0.0
  0
LINE
  5
212
  8
BLATTANSICHT_1_GEOMETRIEAN
  6
VOLLINIE
 62
    18
 10
70.60071223201035
 20
6.657957533032741
 30
0.0
 11
70.60071223201035
 21
6.54041666123695
 31
0.0
  0
LINE
  5
213
  8
BLATTANSICHT_1_GEOMETRIEAN
  6
VOLLINIE
 62
    18
 10
90.60071223201037
 20
6.657957533032741
 30
0.0
 11
70.60071223201035
 21
6.657957533032741
 31
0.0
  0
LINE
  5
214
  8
BLATTANSICHT_1_GEOMETRIEAN
  6
VOLLINIE
 62
    18
 10
93.10071222970221
 20
1.999999999987295
 30
0.0
 11
93.10071222970221
 21
-0.0000000000127011
 31
0.0
  0
LINE
  5
215
  8
BLATTANSICHT_1_GEOMETRIEAN
  6
VOLLINIE
 62
    18
 10
93.49313100059481
 20
2.000000000833804
 30
0.0
 11
93.10071222970221
 21
1.999999999987295
 31
0.0
  0
LINE
  5
216
  8
BLATTANSICHT_1_GEOMETRIEAN
  6
VOLLINIE
 62
    18
 10
93.88386937411336
 20
2.000000000833804
 30
0.0
 11
93.49313100059481
 21
2.000000000833804
 31
0.0
  0
LINE
  5
217
  8
BLATTANSICHT_1_GEOMETRIEAN
  6
VOLLINIE
 62
    18
 10
94.27125414859356
 20
2.000000000833793
 30
0.0
 11
93.88386937411336
 21
2.000000000833804
 31
0.0
  0
LINE
  5
218
  8
BLATTANSICHT_1_GEOMETRIEAN
  6
VOLLINIE
 62
    18
 10
93.10071222970221
 20
-0.0000000000127011
 30
0.0
 11
93.49313100059224
 21
0.0
 31
0.0
  0
LINE
  5
219
  8
BLATTANSICHT_1_GEOMETRIEAN
  6
VOLLINIE
 62
    18
 10
93.49313100059224
 20
0.0
 30
0.0
 11
93.88386937410844
 21
0.0
 31
0.0
  0
LINE
  5
21A
  8
BLATTANSICHT_1_GEOMETRIEAN
  6
VOLLINIE
 62
    18
 10
93.88386937410844
 20
0.0
 30
0.0
 11
94.2712541485866
 21
0.0
 31
0.0
  0
LINE
  5
21B
  8
BLATTANSICHT_1_GEOMETRIEAN
  6
VOLLINIE
 62
    18
 10
94.65362648827289
 20
2.000000000833804
 30
0.0
 11
94.27125414859356
 21
2.000000000833793
 31
0.0
  0
LINE
  5
21C
  8
BLATTANSICHT_1_GEOMETRIEAN
  6
VOLLINIE
 62
    18
 10
95.02934901066652
 20
2.000000000833804
 30
0.0
 11
94.65362648827289
 21
2.000000000833804
 31
0.0
  0
LINE
  5
21D
  8
BLATTANSICHT_1_GEOMETRIEAN
  6
VOLLINIE
 62
    18
 10
95.39681281424359
 20
2.000000000833793
 30
0.0
 11
95.02934901066652
 21
2.000000000833804
 31
0.0
  0
LINE
  5
21E
  8
BLATTANSICHT_1_GEOMETRIEAN
  6
VOLLINIE
 62
    18
 10
94.2712541485866
 20
0.0
 30
0.0
 11
94.65362648826482
 21
0.0
 31
0.0
  0
LINE
  5
21F
  8
BLATTANSICHT_1_GEOMETRIEAN
  6
VOLLINIE
 62
    18
 10
95.02934901065763
 20
0.0
 30
0.0
 11
95.3968128142342
 21
0.0
 31
0.0
  0
LINE
  5
220
  8
BLATTANSICHT_1_GEOMETRIEAN
  6
VOLLINIE
 62
    18
 10
94.65362648826482
 20
0.0
 30
0.0
 11
95.02934901065763
 21
0.0
 31
0.0
  0
LINE
  5
221
  8
BLATTANSICHT_1_GEOMETRIEAN
  6
VOLLINIE
 62
    18
 10
96.43413363826942
 20
2.000000000833793
 30
0.0
 11
96.1007122339278
 21
2.000000000833804
 31
0.0
  0
LINE
  5
222
  8
BLATTANSICHT_1_GEOMETRIEAN
  6
VOLLINIE
 62
    18
 10
95.75444436851353
 20
2.000000000833804
 30
0.0
 11
95.39681281424359
 21
2.000000000833793
 31
0.0
  0
LINE
  5
223
  8
BLATTANSICHT_1_GEOMETRIEAN
  6
VOLLINIE
 62
    18
 10
96.1007122339278
 20
2.000000000833804
 30
0.0
 11
95.75444436851353
 21
2.000000000833804
 31
0.0
  0
LINE
  5
224
  8
BLATTANSICHT_1_GEOMETRIEAN
  6
VOLLINIE
 62
    18
 10
97.0567871262765
 20
2.000000000833804
 30
0.0
 11
96.75328081188114
 21
2.000000000833804
 31
0.0
  0
LINE
  5
225
  8
BLATTANSICHT_1_GEOMETRIEAN
  6
VOLLINIE
 62
    18
 10
97.34335292083837
 20
2.000000000833793
 30
0.0
 11
97.0567871262765
 21
2.000000000833804
 31
0.0
  0
LINE
  5
226
  8
BLATTANSICHT_1_GEOMETRIEAN
  6
VOLLINIE
 62
    18
 10
96.75328081188114
 20
2.000000000833804
 30
0.0
 11
96.43413363826942
 21
2.000000000833793
 31
0.0
  0
LINE
  5
227
  8
BLATTANSICHT_1_GEOMETRIEAN
  6
VOLLINIE
 62
    18
 10
98.93493175507427
 20
2.000000000833804
 30
0.0
 11
98.80705133122626
 21
2.000000000833804
 31
0.0
  0
LINE
  5
228
  8
BLATTANSICHT_1_GEOMETRIEAN
  6
VOLLINIE
 62
    18
 10
99.02684227574854
 20
2.000000000833804
 30
0.0
 11
98.93493175507427
 21
2.000000000833804
 31
0.0
  0
LINE
  5
229
  8
BLATTANSICHT_1_GEOMETRIEAN
  6
VOLLINIE
 62
    18
 10
99.08221623432989
 20
2.000000000833804
 30
0.0
 11
99.02684227574854
 21
2.000000000833804
 31
0.0
  0
LINE
  5
22A
  8
BLATTANSICHT_1_GEOMETRIEAN
  6
VOLLINIE
 62
    18
 10
99.10071223201035
 20
1.999999999987295
 30
0.0
 11
99.08221623432989
 21
2.000000000833804
 31
0.0
  0
LINE
  5
22B
  8
BLATTANSICHT_1_GEOMETRIEAN
  6
VOLLINIE
 62
    18
 10
98.80705133122626
 20
2.000000000833804
 30
0.0
 11
98.64398942953629
 21
2.000000000833793
 31
0.0
  0
LINE
  5
22C
  8
BLATTANSICHT_1_GEOMETRIEAN
  6
VOLLINIE
 62
    18
 10
98.93493175510699
 20
0.0
 30
0.0
 11
99.02684227578585
 21
0.0
 31
0.0
  0
LINE
  5
22D
  8
BLATTANSICHT_1_GEOMETRIEAN
  6
VOLLINIE
 62
    18
 10
99.02684227578585
 20
0.0
 30
0.0
 11
99.08221623437136
 21
0.0
 31
0.0
  0
LINE
  5
22E
  8
BLATTANSICHT_1_GEOMETRIEAN
  6
VOLLINIE
 62
    18
 10
98.80705133125406
 20
0.0
 30
0.0
 11
98.93493175510699
 21
0.0
 31
0.0
  0
LINE
  5
22F
  8
BLATTANSICHT_1_GEOMETRIEAN
  6
VOLLINIE
 62
    18
 10
98.64398942955884
 20
0.0
 30
0.0
 11
98.80705133125406
 21
0.0
 31
0.0
  0
LINE
  5
230
  8
BLATTANSICHT_1_GEOMETRIEAN
  6
VOLLINIE
 62
    18
 10
99.08221623437136
 20
0.0
 30
0.0
 11
99.10071223201035
 21
-0.0000000000127011
 31
0.0
  0
LINE
  5
231
  8
BLATTANSICHT_1_GEOMETRIEAN
  6
VOLLINIE
 62
    18
 10
99.10071223201035
 20
-0.0000000000127011
 30
0.0
 11
99.10071223201035
 21
1.999999999987295
 31
0.0
  0
LINE
  5
232
  8
BLATTANSICHT_1_GEOMETRIEAN
  6
VOLLINIE
 62
    18
 10
98.48194868232832
 20
0.0
 30
0.0
 11
98.64398942955884
 21
0.0
 31
0.0
  0
LINE
  5
233
  8
BLATTANSICHT_1_GEOMETRIEAN
  6
VOLLINIE
 62
    18
 10
98.29686465401157
 20
0.0
 30
0.0
 11
98.48194868232832
 21
0.0
 31
0.0
  0
LINE
  5
234
  8
BLATTANSICHT_1_GEOMETRIEAN
  6
VOLLINIE
 62
    18
 10
98.08952990284841
 20
0.0
 30
0.0
 11
98.29686465401157
 21
0.0
 31
0.0
  0
LINE
  5
235
  8
BLATTANSICHT_1_GEOMETRIEAN
  6
VOLLINIE
 62
    18
 10
98.64398942953629
 20
2.000000000833793
 30
0.0
 11
98.48194868230983
 21
2.000000000833804
 31
0.0
  0
LINE
  5
236
  8
BLATTANSICHT_1_GEOMETRIEAN
  6
VOLLINIE
 62
    18
 10
98.48194868230983
 20
2.000000000833804
 30
0.0
 11
98.29686465399713
 21
2.000000000833804
 31
0.0
  0
LINE
  5
237
  8
BLATTANSICHT_1_GEOMETRIEAN
  6
VOLLINIE
 62
    18
 10
98.29686465399713
 20
2.000000000833804
 30
0.0
 11
98.08952990283804
 21
2.000000000833793
 31
0.0
  0
LINE
  5
238
  8
BLATTANSICHT_1_GEOMETRIEAN
  6
VOLLINIE
 62
    18
 10
97.86083227207348
 20
0.0
 30
0.0
 11
98.08952990284841
 21
0.0
 31
0.0
  0
LINE
  5
239
  8
BLATTANSICHT_1_GEOMETRIEAN
  6
VOLLINIE
 62
    18
 10
97.61175107676881
 20
0.0
 30
0.0
 11
97.86083227207348
 21
0.0
 31
0.0
  0
LINE
  5
23A
  8
BLATTANSICHT_1_GEOMETRIEAN
  6
VOLLINIE
 62
    18
 10
97.34335292083833
 20
0.0
 30
0.0
 11
97.61175107676881
 21
0.0
 31
0.0
  0
LINE
  5
23B
  8
BLATTANSICHT_1_GEOMETRIEAN
  6
VOLLINIE
 62
    18
 10
98.08952990283804
 20
2.000000000833793
 30
0.0
 11
97.86083227206672
 21
2.000000000833804
 31
0.0
  0
LINE
  5
23C
  8
BLATTANSICHT_1_GEOMETRIEAN
  6
VOLLINIE
 62
    18
 10
97.61175107676557
 20
2.000000000833804
 30
0.0
 11
97.34335292083837
 21
2.000000000833793
 31
0.0
  0
LINE
  5
23D
  8
BLATTANSICHT_1_GEOMETRIEAN
  6
VOLLINIE
 62
    18
 10
97.86083227206672
 20
2.000000000833804
 30
0.0
 11
97.61175107676557
 21
2.000000000833804
 31
0.0
  0
LINE
  5
23E
  8
BLATTANSICHT_1_GEOMETRIEAN
  6
VOLLINIE
 62
    18
 10
95.3968128142342
 20
0.0
 30
0.0
 11
95.75444436850464
 21
0.0
 31
0.0
  0
LINE
  5
23F
  8
BLATTANSICHT_1_GEOMETRIEAN
  6
VOLLINIE
 62
    18
 10
95.75444436850464
 20
0.0
 30
0.0
 11
96.10071223391968
 21
0.0
 31
0.0
  0
LINE
  5
240
  8
BLATTANSICHT_1_GEOMETRIEAN
  6
VOLLINIE
 62
    18
 10
96.10071223391968
 20
0.0
 30
0.0
 11
96.43413363826242
 21
0.0
 31
0.0
  0
LINE
  5
241
  8
BLATTANSICHT_1_GEOMETRIEAN
  6
VOLLINIE
 62
    18
 10
96.43413363826242
 20
0.0
 30
0.0
 11
96.75328081187622
 21
0.0
 31
0.0
  0
LINE
  5
242
  8
BLATTANSICHT_1_GEOMETRIEAN
  6
VOLLINIE
 62
    18
 10
97.05678712627389
 20
0.0
 30
0.0
 11
97.34335292083833
 21
0.0
 31
0.0
  0
LINE
  5
243
  8
BLATTANSICHT_1_GEOMETRIEAN
  6
VOLLINIE
 62
    18
 10
96.75328081187622
 20
0.0
 30
0.0
 11
97.05678712627389
 21
0.0
 31
0.0
  0
LINE
  5
244
  8
BLATTANSICHT_1_GEOMETRIEAN
  6
VOLLINIE
 62
    18
 10
-11.42779983644697
 20
-46.45898039955682
 30
0.0
 11
-11.4506709665822
 21
-46.5881433421453
 31
0.0
  0
LINE
  5
245
  8
BLATTANSICHT_1_GEOMETRIEAN
  6
VOLLINIE
 62
    18
 10
-11.40436710614293
 20
-46.34687382784568
 30
0.0
 11
-11.42779983644697
 21
-46.45898039955682
 31
0.0
  0
LINE
  5
246
  8
BLATTANSICHT_1_GEOMETRIEAN
  6
VOLLINIE
 62
    18
 10
-11.36342473464215
 20
-46.172455446502
 30
0.0
 11
-11.36352629907432
 21
-46.17288812060495
 31
0.0
  0
LINE
  5
247
  8
BLATTANSICHT_1_GEOMETRIEAN
  6
VOLLINIE
 62
    18
 10
-11.36333615329838
 20
-46.17207808158565
 30
0.0
 11
-11.36339841216923
 21
-46.17234331027365
 31
0.0
  0
LINE
  5
248
  8
BLATTANSICHT_1_GEOMETRIEAN
  6
VOLLINIE
 62
    18
 10
-11.31423105862224
 20
-45.98849438665216
 30
0.0
 11
-11.36333615329838
 21
-46.17207808158565
 31
0.0
  0
LINE
  5
249
  8
BLATTANSICHT_1_GEOMETRIEAN
  6
VOLLINIE
 62
    18
 10
-11.28488881438675
 20
-45.88866405268205
 30
0.0
 11
-11.31423105862224
 21
-45.98849438665216
 31
0.0
  0
LINE
  5
24A
  8
BLATTANSICHT_1_GEOMETRIEAN
  6
VOLLINIE
 62
    18
 10
-11.24820797115089
 20
-45.77672925631552
 30
0.0
 11
-11.28488881438675
 21
-45.88866405268205
 31
0.0
  0
LINE
  5
24B
  8
BLATTANSICHT_1_GEOMETRIEAN
  6
VOLLINIE
 62
    18
 10
-11.19258565539911
 20
-45.60925636359364
 30
0.0
 11
-11.20220380641299
 21
-45.63634353020671
 31
0.0
  0
LINE
  5
24C
  8
BLATTANSICHT_1_GEOMETRIEAN
  6
VOLLINIE
 62
    18
 10
-9.988905273249621
 20
-43.60103862157115
 30
0.0
 11
-9.988981982003462
 21
-43.60112044590723
 31
0.0
  0
LINE
  5
24D
  8
BLATTANSICHT_1_GEOMETRIEAN
  6
VOLLINIE
 62
    18
 10
-9.989091637580596
 20
-43.60123741423672
 30
0.0
 11
-10.09970669951357
 21
-43.72676252585921
 31
0.0
  0
LINE
  5
24E
  8
BLATTANSICHT_1_GEOMETRIEAN
  6
VOLLINIE
 62
    18
 10
-7.710727196708246
 20
-42.03563895065854
 30
0.0
 11
-7.839377795585332
 21
-42.08719511437666
 31
0.0
  0
LINE
  5
24F
  8
BLATTANSICHT_1_GEOMETRIEAN
  6
VOLLINIE
 62
    18
 10
-7.839377795585332
 20
-42.08719511437666
 30
0.0
 11
-7.94556168151815
 21
-42.13359221401525
 31
0.0
  0
LINE
  5
250
  8
BLATTANSICHT_1_GEOMETRIEAN
  6
VOLLINIE
 62
    18
 10
-8.051039268906024
 20
-42.17968069616752
 30
0.0
 11
-8.108780850976128
 21
-42.20661843757948
 31
0.0
  0
LINE
  5
251
  8
BLATTANSICHT_1_GEOMETRIEAN
  6
VOLLINIE
 62
    18
 10
-8.051039268906024
 20
-42.17968069616752
 30
0.0
 11
-8.381838540601388
 21
-42.34439916136996
 31
0.0
  0
LINE
  5
252
  8
BLATTANSICHT_1_GEOMETRIEAN
  6
VOLLINIE
 62
    18
 10
-7.99394274524422
 20
-42.15377273852584
 30
0.0
 11
-8.051039268906024
 21
-42.17968069616752
 31
0.0
  0
LINE
  5
253
  8
BLATTANSICHT_1_GEOMETRIEAN
  6
VOLLINIE
 62
    18
 10
-6.280606943573613
 20
-41.67594926905305
 30
0.0
 11
-6.548314540523026
 21
-41.71524621616373
 31
0.0
  0
LINE
  5
254
  8
BLATTANSICHT_1_GEOMETRIEAN
  6
VOLLINIE
 62
    18
 10
-6.047580349184559
 20
-41.65170336238096
 30
0.0
 11
-6.280606943573613
 21
-41.67594926905305
 31
0.0
  0
LINE
  5
255
  8
BLATTANSICHT_1_GEOMETRIEAN
  6
VOLLINIE
 62
    18
 10
-7.116021372882168
 20
-41.8419727401523
 30
0.0
 11
-7.283871218080607
 21
-41.8884924888426
 31
0.0
  0
LINE
  5
256
  8
BLATTANSICHT_1_GEOMETRIEAN
  6
VOLLINIE
 62
    18
 10
-7.283871218080607
 20
-41.8884924888426
 30
0.0
 11
-7.362193244263589
 21
-41.91282032452173
 31
0.0
  0
LINE
  5
257
  8
BLATTANSICHT_1_GEOMETRIEAN
  6
VOLLINIE
 62
    18
 10
-7.710727196708246
 20
-42.03563895065854
 30
0.0
 11
-7.99394274524422
 21
-42.15377273852584
 31
0.0
  0
LINE
  5
258
  8
BLATTANSICHT_1_GEOMETRIEAN
  6
VOLLINIE
 62
    18
 10
-7.524951574457458
 20
-41.96717234633359
 30
0.0
 11
-7.710727196708246
 21
-42.03563895065854
 31
0.0
  0
LINE
  5
259
  8
BLATTANSICHT_1_GEOMETRIEAN
  6
VOLLINIE
 62
    18
 10
-7.54524105276553
 20
-41.97464992421194
 30
0.0
 11
-7.563941737937729
 21
-41.98096661211764
 31
0.0
  0
LINE
  5
25A
  8
BLATTANSICHT_1_GEOMETRIEAN
  6
VOLLINIE
 62
    18
 10
-7.563941737937729
 20
-41.98096661211764
 30
0.0
 11
-7.710727196708246
 21
-42.03563895065854
 31
0.0
  0
LINE
  5
25B
  8
BLATTANSICHT_1_GEOMETRIEAN
  6
VOLLINIE
 62
    18
 10
-8.381838540601388
 20
-42.34439916136996
 30
0.0
 11
-8.445590527057247
 21
-42.37913179830739
 31
0.0
  0
LINE
  5
25C
  8
BLATTANSICHT_1_GEOMETRIEAN
  6
VOLLINIE
 62
    18
 10
-8.445590527057247
 20
-42.37913179830739
 30
0.0
 11
-8.701870176849463
 21
-42.52916951270699
 31
0.0
  0
LINE
  5
25D
  8
BLATTANSICHT_1_GEOMETRIEAN
  6
VOLLINIE
 62
    18
 10
-8.701870176849463
 20
-42.52916951270699
 30
0.0
 11
-8.876698594085337
 21
-42.64165467062067
 31
0.0
  0
LINE
  5
25E
  8
BLATTANSICHT_1_GEOMETRIEAN
  6
VOLLINIE
 62
    18
 10
-8.876698594085337
 20
-42.64165467062067
 30
0.0
 11
-9.009920188034831
 21
-42.73329085294733
 31
0.0
  0
LINE
  5
25F
  8
BLATTANSICHT_1_GEOMETRIEAN
  6
VOLLINIE
 62
    18
 10
-9.009920188034831
 20
-42.73329085294733
 30
0.0
 11
-9.27324064351903
 21
-42.9307518346598
 31
0.0
  0
LINE
  5
260
  8
BLATTANSICHT_1_GEOMETRIEAN
  6
VOLLINIE
 62
    18
 10
-9.585451061464667
 20
-43.19641882376072
 30
0.0
 11
-9.644831013802134
 21
-43.25128789284539
 31
0.0
  0
LINE
  5
261
  8
BLATTANSICHT_1_GEOMETRIEAN
  6
VOLLINIE
 62
    18
 10
-9.85074873797198
 20
-43.45366865130711
 30
0.0
 11
-9.988983952358396
 21
-43.60111859871235
 31
0.0
  0
LINE
  5
262
  8
BLATTANSICHT_1_GEOMETRIEAN
  6
VOLLINIE
 62
    18
 10
-9.644831013802134
 20
-43.25128789284539
 30
0.0
 11
-9.85074873797198
 21
-43.45366865130711
 31
0.0
  0
LINE
  5
263
  8
BLATTANSICHT_1_GEOMETRIEAN
  6
VOLLINIE
 62
    18
 10
-10.09970669951357
 20
-43.72676252585921
 30
0.0
 11
-10.30339724076453
 21
-43.97790375229183
 31
0.0
  0
LINE
  5
264
  8
BLATTANSICHT_1_GEOMETRIEAN
  6
VOLLINIE
 62
    18
 10
-9.988983952358396
 20
-43.60111859871235
 30
0.0
 11
-10.09970669951357
 21
-43.72676252585921
 31
0.0
  0
LINE
  5
265
  8
BLATTANSICHT_1_GEOMETRIEAN
  6
VOLLINIE
 62
    18
 10
-10.33138056326676
 20
-44.01466450880913
 30
0.0
 11
-10.54489151091205
 21
-44.31628248932163
 31
0.0
  0
LINE
  5
266
  8
BLATTANSICHT_1_GEOMETRIEAN
  6
VOLLINIE
 62
    18
 10
-10.30339724076453
 20
-43.97790375229183
 30
0.0
 11
-10.33138056326676
 21
-44.01466450880913
 31
0.0
  0
LINE
  5
267
  8
BLATTANSICHT_1_GEOMETRIEAN
  6
VOLLINIE
 62
    18
 10
-10.54489151091205
 20
-44.31628248932163
 30
0.0
 11
-10.58596760462127
 21
-44.37912284126213
 31
0.0
  0
LINE
  5
268
  8
BLATTANSICHT_1_GEOMETRIEAN
  6
VOLLINIE
 62
    18
 10
-11.20220380641299
 20
-45.63634353020671
 30
0.0
 11
-11.22485797382414
 21
-45.70183552721802
 31
0.0
  0
LINE
  5
269
  8
BLATTANSICHT_1_GEOMETRIEAN
  6
VOLLINIE
 62
    18
 10
-11.31423105862224
 20
-45.98849438665216
 30
0.0
 11
-11.36346471622802
 21
-46.17259123758644
 31
0.0
  0
LINE
  5
26A
  8
BLATTANSICHT_1_GEOMETRIEAN
  6
VOLLINIE
 62
    18
 10
-11.22485797382414
 20
-45.70183552721802
 30
0.0
 11
-11.31423105862224
 21
-45.98849438665216
 31
0.0
  0
LINE
  5
26B
  8
BLATTANSICHT_1_GEOMETRIEAN
  6
VOLLINIE
 62
    18
 10
-11.40436710614293
 20
-46.34687382784568
 30
0.0
 11
-11.46313719009403
 21
-46.65309947459983
 31
0.0
  0
LINE
  5
26C
  8
BLATTANSICHT_1_GEOMETRIEAN
  6
VOLLINIE
 62
    18
 10
-11.36346471622802
 20
-46.17259123758644
 30
0.0
 11
-11.40436710614293
 21
-46.34687382784568
 31
0.0
  0
LINE
  5
26D
  8
BLATTANSICHT_1_GEOMETRIEAN
  6
VOLLINIE
 62
    18
 10
-11.46313719009403
 20
-46.65309947459983
 30
0.0
 11
-11.47227003207289
 21
-46.71012239781255
 31
0.0
  0
LINE
  5
26E
  8
BLATTANSICHT_1_GEOMETRIEAN
  6
VOLLINIE
 62
    18
 10
-11.47227003207289
 20
-46.71012239781255
 30
0.0
 11
-11.51768225735554
 21
-47.07686217030485
 31
0.0
  0
LINE
  5
26F
  8
BLATTANSICHT_1_GEOMETRIEAN
  6
VOLLINIE
 62
    18
 10
-11.51768225735554
 20
-47.07686217030485
 30
0.0
 11
-11.5232086342822
 21
-47.14014586815738
 31
0.0
  0
LINE
  5
270
  8
BLATTANSICHT_1_GEOMETRIEAN
  6
VOLLINIE
 62
    18
 10
-11.5232086342822
 20
-47.14014586815738
 30
0.0
 11
-11.54043151786552
 21
-47.44570197574765
 31
0.0
  0
LINE
  5
271
  8
BLATTANSICHT_1_GEOMETRIEAN
  6
VOLLINIE
 62
    18
 10
-11.54043151786552
 20
-47.44570197574765
 30
0.0
 11
-11.54327720208533
 21
-47.63047231102067
 31
0.0
  0
LINE
  5
272
  8
BLATTANSICHT_1_GEOMETRIEAN
  6
VOLLINIE
 62
    18
 10
-11.47227003207289
 20
-46.71012239781255
 30
0.0
 11
-11.47815268068701
 21
-46.74885278112506
 31
0.0
  0
LINE
  5
273
  8
BLATTANSICHT_1_GEOMETRIEAN
  6
VOLLINIE
 62
    18
 10
-11.06871030725505
 20
-45.29175708732859
 30
0.0
 11
-11.0865548541
 21
-45.33437284209751
 31
0.0
  0
LINE
  5
274
  8
BLATTANSICHT_1_GEOMETRIEAN
  6
VOLLINIE
 62
    18
 10
-10.9669287194392
 20
-45.06454087999047
 30
0.0
 11
-11.02321289813882
 21
-45.19018912238582
 31
0.0
  0
LINE
  5
275
  8
BLATTANSICHT_1_GEOMETRIEAN
  6
VOLLINIE
 62
    18
 10
-10.9142569477157
 20
-44.95604219242544
 30
0.0
 11
-10.9669287194392
 21
-45.06454087999047
 31
0.0
  0
LINE
  5
276
  8
BLATTANSICHT_1_GEOMETRIEAN
  6
VOLLINIE
 62
    18
 10
-11.5272324641704
 20
-47.21153378599898
 30
0.0
 11
-11.53601889113323
 21
-47.33543501015062
 31
0.0
  0
LINE
  5
277
  8
BLATTANSICHT_1_GEOMETRIEAN
  6
VOLLINIE
 62
    18
 10
-11.53601889113323
 20
-47.33543501015062
 30
0.0
 11
-11.54043151786552
 21
-47.44570197574765
 31
0.0
  0
LINE
  5
278
  8
BLATTANSICHT_1_GEOMETRIEAN
  6
VOLLINIE
 62
    18
 10
-11.51426799046911
 20
-47.04117700623004
 30
0.0
 11
-11.51768225735554
 21
-47.07686217030485
 31
0.0
  0
LINE
  5
279
  8
BLATTANSICHT_1_GEOMETRIEAN
  6
VOLLINIE
 62
    18
 10
-11.06871030725505
 20
-45.29175708732859
 30
0.0
 11
-11.20220380641299
 21
-45.63634353020671
 31
0.0
  0
LINE
  5
27A
  8
BLATTANSICHT_1_GEOMETRIEAN
  6
VOLLINIE
 62
    18
 10
-11.04824417564221
 20
-45.24398147386037
 30
0.0
 11
-11.06871030725505
 21
-45.29175708732859
 31
0.0
  0
LINE
  5
27B
  8
BLATTANSICHT_1_GEOMETRIEAN
  6
VOLLINIE
 62
    18
 10
-10.83464690070095
 20
-44.80182353564513
 30
0.0
 11
-10.83508626804939
 21
-44.80267466744129
 31
0.0
  0
LINE
  5
27C
  8
BLATTANSICHT_1_GEOMETRIEAN
  6
VOLLINIE
 62
    18
 10
-10.83424331330045
 20
-44.80104171589833
 30
0.0
 11
-10.8345327137013
 21
-44.80160233535234
 31
0.0
  0
LINE
  5
27D
  8
BLATTANSICHT_1_GEOMETRIEAN
  6
VOLLINIE
 62
    18
 10
-10.73942962229196
 20
-44.63047232708467
 30
0.0
 11
-10.83424331330045
 21
-44.80104171589833
 31
0.0
  0
LINE
  5
27E
  8
BLATTANSICHT_1_GEOMETRIEAN
  6
VOLLINIE
 62
    18
 10
-9.785917877585335
 20
-43.38783162570466
 30
0.0
 11
-9.85074873797198
 21
-43.45366865130711
 31
0.0
  0
LINE
  5
27F
  8
BLATTANSICHT_1_GEOMETRIEAN
  6
VOLLINIE
 62
    18
 10
-9.710180615071776
 20
-43.3155150103674
 30
0.0
 11
-9.785917877585335
 21
-43.38783162570466
 31
0.0
  0
LINE
  5
280
  8
BLATTANSICHT_1_GEOMETRIEAN
  6
VOLLINIE
 62
    18
 10
-10.18130418080363
 20
-43.82406907447322
 30
0.0
 11
-10.27039499408019
 21
-43.93721347449869
 31
0.0
  0
LINE
  5
281
  8
BLATTANSICHT_1_GEOMETRIEAN
  6
VOLLINIE
 62
    18
 10
-10.09970669951357
 20
-43.72676252585921
 30
0.0
 11
-10.18130418080363
 21
-43.82406907447322
 31
0.0
  0
LINE
  5
282
  8
BLATTANSICHT_1_GEOMETRIEAN
  6
VOLLINIE
 62
    18
 10
-9.572116772118259
 20
-43.18429962477173
 30
0.0
 11
-9.585451061464667
 21
-43.19641882376072
 31
0.0
  0
LINE
  5
283
  8
BLATTANSICHT_1_GEOMETRIEAN
  6
VOLLINIE
 62
    18
 10
-9.304820034949966
 20
-42.95598887993064
 30
0.0
 11
-9.348724446991946
 21
-42.99166092251071
 31
0.0
  0
LINE
  5
284
  8
BLATTANSICHT_1_GEOMETRIEAN
  6
VOLLINIE
 62
    18
 10
-9.11652760137435
 20
-42.81052610683339
 30
0.0
 11
-9.236115315181685
 21
-42.90291197783435
 31
0.0
  0
LINE
  5
285
  8
BLATTANSICHT_1_GEOMETRIEAN
  6
VOLLINIE
 62
    18
 10
-9.009920188034831
 20
-42.73329085294733
 30
0.0
 11
-9.11652760137435
 21
-42.81052610683339
 31
0.0
  0
LINE
  5
286
  8
BLATTANSICHT_1_GEOMETRIEAN
  6
VOLLINIE
 62
    18
 10
-10.73942962229196
 20
-44.63047232708467
 30
0.0
 11
-10.83480478345233
 21
-44.8020919019695
 31
0.0
  0
LINE
  5
287
  8
BLATTANSICHT_1_GEOMETRIEAN
  6
VOLLINIE
 62
    18
 10
-10.58596760462127
 20
-44.37912284126213
 30
0.0
 11
-10.73942962229196
 21
-44.63047232708467
 31
0.0
  0
LINE
  5
288
  8
BLATTANSICHT_1_GEOMETRIEAN
  6
VOLLINIE
 62
    18
 10
-10.9142569477157
 20
-44.95604219242544
 30
0.0
 11
-11.04824417564221
 21
-45.24398147386037
 31
0.0
  0
LINE
  5
289
  8
BLATTANSICHT_1_GEOMETRIEAN
  6
VOLLINIE
 62
    18
 10
-10.83480478345233
 20
-44.8020919019695
 30
0.0
 11
-10.9142569477157
 21
-44.95604219242544
 31
0.0
  0
LINE
  5
28A
  8
BLATTANSICHT_1_GEOMETRIEAN
  6
VOLLINIE
 62
    18
 10
-10.68902410641215
 20
-44.54481376352287
 30
0.0
 11
-10.73942962229196
 21
-44.63047232708467
 31
0.0
  0
LINE
  5
28B
  8
BLATTANSICHT_1_GEOMETRIEAN
  6
VOLLINIE
 62
    18
 10
-10.62972361635778
 20
-44.450789115553
 30
0.0
 11
-10.68902410641215
 21
-44.54481376352287
 31
0.0
  0
LINE
  5
28C
  8
BLATTANSICHT_1_GEOMETRIEAN
  6
VOLLINIE
 62
    18
 10
-10.53158512273823
 20
-44.29628815943436
 30
0.0
 11
-10.54489151091205
 21
-44.31628248932163
 31
0.0
  0
LINE
  5
28D
  8
BLATTANSICHT_1_GEOMETRIEAN
  6
VOLLINIE
 62
    18
 10
-10.33138056326676
 20
-44.01466450880913
 30
0.0
 11
-10.36224033302823
 21
-44.05589622375182
 31
0.0
  0
LINE
  5
28E
  8
BLATTANSICHT_1_GEOMETRIEAN
  6
VOLLINIE
 62
    18
 10
-9.304820034949966
 20
-42.95598887993064
 30
0.0
 11
-9.585451061464667
 21
-43.19641882376072
 31
0.0
  0
LINE
  5
28F
  8
BLATTANSICHT_1_GEOMETRIEAN
  6
VOLLINIE
 62
    18
 10
-9.27324064351903
 20
-42.9307518346598
 30
0.0
 11
-9.304820034949966
 21
-42.95598887993064
 31
0.0
  0
LINE
  5
290
  8
BLATTANSICHT_1_GEOMETRIEAN
  6
VOLLINIE
 62
    18
 10
-8.876519579417812
 20
-42.64154565979879
 30
0.0
 11
-8.87704009249679
 21
-42.64190363847267
 31
0.0
  0
LINE
  5
291
  8
BLATTANSICHT_1_GEOMETRIEAN
  6
VOLLINIE
 62
    18
 10
-8.875980408869564
 20
-42.64117484960084
 30
0.0
 11
-8.876380473551365
 21
-42.64144999086056
 31
0.0
  0
LINE
  5
292
  8
BLATTANSICHT_1_GEOMETRIEAN
  6
VOLLINIE
 62
    18
 10
-8.527988806099614
 20
-42.42737148283949
 30
0.0
 11
-8.627537100179856
 21
-42.48388696729662
 31
0.0
  0
LINE
  5
293
  8
BLATTANSICHT_1_GEOMETRIEAN
  6
VOLLINIE
 62
    18
 10
-8.627537100179856
 20
-42.48388696729662
 30
0.0
 11
-8.701870176849463
 21
-42.52916951270699
 31
0.0
  0
LINE
  5
294
  8
BLATTANSICHT_1_GEOMETRIEAN
  6
VOLLINIE
 62
    18
 10
-8.37165227479143
 20
-42.33894188363517
 30
0.0
 11
-8.381838540601388
 21
-42.34439916136996
 31
0.0
  0
LINE
  5
295
  8
BLATTANSICHT_1_GEOMETRIEAN
  6
VOLLINIE
 62
    18
 10
-7.000057963887063
 20
-41.81000930385701
 30
0.0
 11
-7.006759520235596
 21
-41.81169071087461
 31
0.0
  0
LINE
  5
296
  8
BLATTANSICHT_1_GEOMETRIEAN
  6
VOLLINIE
 62
    18
 10
-5.837906521811276
 20
-41.6377105628824
 30
0.0
 11
-5.912642636388985
 21
-41.6418523546624
 31
0.0
  0
LINE
  5
297
  8
BLATTANSICHT_1_GEOMETRIEAN
  6
VOLLINIE
 62
    18
 10
-6.548314540523026
 20
-41.71524621616373
 30
0.0
 11
-6.645774306484753
 21
-41.73263372898126
 31
0.0
  0
LINE
  5
298
  8
BLATTANSICHT_1_GEOMETRIEAN
  6
VOLLINIE
 62
    18
 10
-7.006759520235596
 20
-41.81169071087461
 30
0.0
 11
-7.041936070744645
 21
-41.82065119490724
 31
0.0
  0
LINE
  5
299
  8
BLATTANSICHT_1_GEOMETRIEAN
  6
VOLLINIE
 62
    18
 10
-6.645774306484753
 20
-41.73263372898126
 30
0.0
 11
-7.006759520235596
 21
-41.81169071087461
 31
0.0
  0
LINE
  5
29A
  8
BLATTANSICHT_1_GEOMETRIEAN
  6
VOLLINIE
 62
    18
 10
-7.362193244263589
 20
-41.91282032452173
 30
0.0
 11
-7.524951574457458
 21
-41.96717234633359
 31
0.0
  0
LINE
  5
29B
  8
BLATTANSICHT_1_GEOMETRIEAN
  6
VOLLINIE
 62
    18
 10
-7.041936070744645
 20
-41.82065119490724
 30
0.0
 11
-7.362193244263589
 21
-41.91282032452173
 31
0.0
  0
LINE
  5
29C
  8
BLATTANSICHT_1_GEOMETRIEAN
  6
VOLLINIE
 62
    18
 10
-6.645774306484753
 20
-41.73263372898126
 30
0.0
 11
-6.713028319035752
 21
-41.74560339748696
 31
0.0
  0
LINE
  5
29D
  8
BLATTANSICHT_1_GEOMETRIEAN
  6
VOLLINIE
 62
    18
 10
-6.280606943573613
 20
-41.67594926905305
 30
0.0
 11
-6.423308750011312
 21
-41.69536116803678
 31
0.0
  0
LINE
  5
29E
  8
BLATTANSICHT_1_GEOMETRIEAN
  6
VOLLINIE
 62
    18
 10
-6.423308750011312
 20
-41.69536116803678
 30
0.0
 11
-6.49729395801125
 21
-41.7077568764686
 31
0.0
  0
LINE
  5
29F
  8
BLATTANSICHT_1_GEOMETRIEAN
  6
VOLLINIE
 62
    18
 10
-6.131425912000288
 20
-41.65936848507315
 30
0.0
 11
-6.280606943573613
 21
-41.67594926905305
 31
0.0
  0
LINE
  5
2A0
  8
BLATTANSICHT_1_GEOMETRIEAN
  6
VOLLINIE
 62
    18
 10
-6.087282934880501
 20
-41.65583432944911
 30
0.0
 11
-6.131425912000288
 21
-41.65936848507315
 31
0.0
  0
LINE
  5
2A1
  8
BLATTANSICHT_1_GEOMETRIEAN
  6
VOLLINIE
 62
    18
 10
-5.912642636388985
 20
-41.6418523546624
 30
0.0
 11
-6.047580349184559
 21
-41.65170336238096
 31
0.0
  0
LINE
  5
2A2
  8
BLATTANSICHT_1_GEOMETRIEAN
  6
VOLLINIE
 62
    18
 10
-5.543277198507817
 20
-41.63047232708468
 30
0.0
 11
-5.912642636388985
 21
-41.6418523546624
 31
0.0
  0
LINE
  5
2A3
  8
BLATTANSICHT_1_GEOMETRIEAN
  6
VOLLINIE
 62
    18
 10
-11.47815268068701
 20
-46.74885278112506
 30
0.0
 11
-11.51426799046911
 21
-47.04117700623004
 31
0.0
  0
LINE
  5
2A4
  8
BLATTANSICHT_1_GEOMETRIEAN
  6
VOLLINIE
 62
    18
 10
-11.0865548541
 20
-45.33437284209751
 30
0.0
 11
-11.19258565539911
 21
-45.60925636359364
 31
0.0
  0
LINE
  5
2A5
  8
BLATTANSICHT_1_GEOMETRIEAN
  6
VOLLINIE
 62
    18
 10
-10.36224033302823
 20
-44.05589622375182
 30
0.0
 11
-10.53158512273823
 21
-44.29628815943436
 31
0.0
  0
LINE
  5
2A6
  8
BLATTANSICHT_1_GEOMETRIEAN
  6
VOLLINIE
 62
    18
 10
-9.348724446991946
 20
-42.99166092251071
 30
0.0
 11
-9.572116772118259
 21
-43.18429962477173
 31
0.0
  0
LINE
  5
2A7
  8
BLATTANSICHT_1_GEOMETRIEAN
  6
VOLLINIE
 62
    18
 10
-8.108780850976128
 20
-42.20661843757948
 30
0.0
 11
-8.37165227479143
 21
-42.33894188363517
 31
0.0
  0
LINE
  5
2A8
  8
BLATTANSICHT_1_GEOMETRIEAN
  6
VOLLINIE
 62
    18
 10
-6.713028319035752
 20
-41.74560339748696
 30
0.0
 11
-7.000057963887063
 21
-41.81000930385701
 31
0.0
  0
LINE
  5
2A9
  8
BLATTANSICHT_1_GEOMETRIEAN
  6
VOLLINIE
 62
    18
 10
-5.543277198507817
 20
-41.63047232708468
 30
0.0
 11
-5.837906521811276
 21
-41.6377105628824
 31
0.0
  0
LINE
  5
2AA
  8
BLATTANSICHT_1_GEOMETRIEAN
  6
VOLLINIE
 62
    18
 10
-5.275698503473074
 20
-49.66293429256854
 30
0.0
 11
-5.409200783204779
 21
-49.67608311962691
 31
0.0
  0
LINE
  5
2AB
  8
BLATTANSICHT_1_GEOMETRIEAN
  6
VOLLINIE
 62
    18
 10
-5.143342036812054
 20
-49.6410821512642
 30
0.0
 11
-5.275698503473074
 21
-49.66293429256854
 31
0.0
  0
LINE
  5
2AC
  8
BLATTANSICHT_1_GEOMETRIEAN
  6
VOLLINIE
 62
    18
 10
-5.409200783204779
 20
-49.67608311962691
 30
0.0
 11
-5.543277198744413
 21
-49.68047232708467
 31
0.0
  0
LINE
  5
2AD
  8
BLATTANSICHT_1_GEOMETRIEAN
  6
VOLLINIE
 62
    18
 10
-5.012698154075112
 20
-49.61062026997563
 30
0.0
 11
-5.143342036812054
 21
-49.6410821512642
 31
0.0
  0
LINE
  5
2AE
  8
BLATTANSICHT_1_GEOMETRIEAN
  6
VOLLINIE
 62
    18
 10
-4.884326292287136
 20
-49.57167909113738
 30
0.0
 11
-5.012698154075112
 21
-49.61062026997563
 31
0.0
  0
LINE
  5
2AF
  8
BLATTANSICHT_1_GEOMETRIEAN
  6
VOLLINIE
 62
    18
 10
-4.758776159472254
 20
-49.52442536685678
 30
0.0
 11
-4.884326292287136
 21
-49.57167909113738
 31
0.0
  0
LINE
  5
2B0
  8
BLATTANSICHT_1_GEOMETRIEAN
  6
VOLLINIE
 62
    18
 10
-4.636585386390395
 20
-49.46906144770361
 30
0.0
 11
-4.758776159472254
 21
-49.52442536685678
 31
0.0
  0
LINE
  5
2B1
  8
BLATTANSICHT_1_GEOMETRIEAN
  6
VOLLINIE
 62
    18
 10
-4.518277206507179
 20
-49.40582440837488
 30
0.0
 11
-4.636585386390395
 21
-49.46906144770361
 31
0.0
  0
LINE
  5
2B2
  8
BLATTANSICHT_1_GEOMETRIEAN
  6
VOLLINIE
 62
    18
 10
-4.404358233566577
 20
-49.33498503955711
 30
0.0
 11
-4.518277206507179
 21
-49.40582440837488
 31
0.0
  0
LINE
  5
2B3
  8
BLATTANSICHT_1_GEOMETRIEAN
  6
VOLLINIE
 62
    18
 10
-4.295316280755349
 20
-49.25684668220839
 30
0.0
 11
-4.404358233566577
 21
-49.33498503955711
 31
0.0
  0
LINE
  5
2B4
  8
BLATTANSICHT_1_GEOMETRIEAN
  6
VOLLINIE
 62
    18
 10
-4.191618288247064
 20
-49.17174394011511
 30
0.0
 11
-4.295316280755349
 21
-49.25684668220839
 31
0.0
  0
LINE
  5
2B5
  8
BLATTANSICHT_1_GEOMETRIEAN
  6
VOLLINIE
 62
    18
 10
-4.093708306770158
 20
-49.08004123628784
 30
0.0
 11
-4.191618288247064
 21
-49.17174394011511
 31
0.0
  0
LINE
  5
2B6
  8
BLATTANSICHT_1_GEOMETRIEAN
  6
VOLLINIE
 62
    18
 10
-4.002005598597531
 20
-48.98213125201992
 30
0.0
 11
-4.093708306770158
 21
-49.08004123628784
 31
0.0
  0
LINE
  5
2B7
  8
BLATTANSICHT_1_GEOMETRIEAN
  6
VOLLINIE
 62
    18
 10
-3.916902852604187
 20
-48.87843325623442
 30
0.0
 11
-4.002005598597531
 21
-48.98213125201992
 31
0.0
  0
LINE
  5
2B8
  8
BLATTANSICHT_1_GEOMETRIEAN
  6
VOLLINIE
 62
    18
 10
-3.838764491844592
 20
-48.76939129970695
 30
0.0
 11
-3.916902852604187
 21
-48.87843325623442
 31
0.0
  0
LINE
  5
2B9
  8
BLATTANSICHT_1_GEOMETRIEAN
  6
VOLLINIE
 62
    18
 10
-3.767925118118231
 20
-48.65547231915184
 30
0.0
 11
-3.838764491844592
 21
-48.76939129970695
 31
0.0
  0
LINE
  5
2BA
  8
BLATTANSICHT_1_GEOMETRIEAN
  6
VOLLINIE
 62
    18
 10
-3.70468807491247
 20
-48.53716413106982
 30
0.0
 11
-3.767925118118231
 21
-48.65547231915184
 31
0.0
  0
LINE
  5
2BB
  8
BLATTANSICHT_1_GEOMETRIEAN
  6
VOLLINIE
 62
    18
 10
-3.649324152967011
 20
-48.41497334930835
 30
0.0
 11
-3.70468807491247
 21
-48.53716413106982
 31
0.0
  0
LINE
  5
2BC
  8
BLATTANSICHT_1_GEOMETRIEAN
  6
VOLLINIE
 62
    18
 10
-3.602070430906238
 20
-48.28942321888105
 30
0.0
 11
-3.649324152967011
 21
-48.41497334930835
 31
0.0
  0
LINE
  5
2BD
  8
BLATTANSICHT_1_GEOMETRIEAN
  6
VOLLINIE
 62
    18
 10
-3.563129253937912
 20
-48.16105135967808
 30
0.0
 11
-3.602070430906238
 21
-48.28942321888105
 31
0.0
  0
LINE
  5
2BE
  8
BLATTANSICHT_1_GEOMETRIEAN
  6
VOLLINIE
 62
    18
 10
-3.532667374153871
 20
-48.03040747968773
 30
0.0
 11
-3.563129253937912
 21
-48.16105135967808
 31
0.0
  0
LINE
  5
2BF
  8
BLATTANSICHT_1_GEOMETRIEAN
  6
VOLLINIE
 62
    18
 10
-3.507486863306514
 20
-47.87142398833436
 30
0.0
 11
-3.532667374153871
 21
-48.03040747968773
 31
0.0
  0
LINE
  5
2C0
  8
BLATTANSICHT_1_GEOMETRIEAN
  6
VOLLINIE
 62
    18
 10
-3.494857676215698
 20
-47.71095494994108
 30
0.0
 11
-3.507486863306514
 21
-47.87142398833436
 31
0.0
  0
LINE
  5
2C1
  8
BLATTANSICHT_1_GEOMETRIEAN
  6
VOLLINIE
 62
    18
 10
-3.532667373158897
 20
-47.23053717959968
 30
0.0
 11
-3.507486862707068
 21
-47.3895206710157
 31
0.0
  0
LINE
  5
2C2
  8
BLATTANSICHT_1_GEOMETRIEAN
  6
VOLLINIE
 62
    18
 10
-3.507486862707068
 20
-47.3895206710157
 30
0.0
 11
-3.494857676015469
 21
-47.5499897094404
 31
0.0
  0
LINE
  5
2C3
  8
BLATTANSICHT_1_GEOMETRIEAN
  6
VOLLINIE
 62
    18
 10
-3.494857676015469
 20
-47.5499897094404
 30
0.0
 11
-3.494857676215698
 21
-47.71095494994108
 31
0.0
  0
LINE
  5
2C4
  8
BLATTANSICHT_1_GEOMETRIEAN
  6
VOLLINIE
 62
    18
 10
-5.409200783181847
 20
-45.58486153465994
 30
0.0
 11
-5.27569850295878
 21
-45.5980103617845
 31
0.0
  0
LINE
  5
2C5
  8
BLATTANSICHT_1_GEOMETRIEAN
  6
VOLLINIE
 62
    18
 10
-5.543277199217186
 20
-45.58047232708466
 30
0.0
 11
-5.409200783181847
 21
-45.58486153465994
 31
0.0
  0
LINE
  5
2C6
  8
BLATTANSICHT_1_GEOMETRIEAN
  6
VOLLINIE
 62
    18
 10
-5.27569850295878
 20
-45.5980103617845
 30
0.0
 11
-5.14334203581708
 21
-45.61986250321905
 31
0.0
  0
LINE
  5
2C7
  8
BLATTANSICHT_1_GEOMETRIEAN
  6
VOLLINIE
 62
    18
 10
-5.677353616629221
 20
-45.58486153368981
 30
0.0
 11
-5.543277199217186
 21
-45.58047232708466
 31
0.0
  0
LINE
  5
2C8
  8
BLATTANSICHT_1_GEOMETRIEAN
  6
VOLLINIE
 62
    18
 10
-5.943212365976334
 20
-45.61986250260197
 30
0.0
 11
-5.810855897853545
 21
-45.59801036092574
 31
0.0
  0
LINE
  5
2C9
  8
BLATTANSICHT_1_GEOMETRIEAN
  6
VOLLINIE
 62
    18
 10
-5.810855897853545
 20
-45.59801036092574
 30
0.0
 11
-5.677353616629221
 21
-45.58486153368981
 31
0.0
  0
LINE
  5
2CA
  8
BLATTANSICHT_1_GEOMETRIEAN
  6
VOLLINIE
 62
    18
 10
-7.579067537248438
 20
-47.38952066867197
 30
0.0
 11
-7.553887026384048
 21
-47.2305371757463
 31
0.0
  0
LINE
  5
2CB
  8
BLATTANSICHT_1_GEOMETRIEAN
  6
VOLLINIE
 62
    18
 10
-7.591696724111029
 20
-47.54998970864364
 30
0.0
 11
-7.579067537248438
 21
-47.38952066867197
 31
0.0
  0
LINE
  5
2CC
  8
BLATTANSICHT_1_GEOMETRIEAN
  6
VOLLINIE
 62
    18
 10
-7.591696723837649
 20
-47.71095495069991
 30
0.0
 11
-7.591696724111029
 21
-47.54998970864364
 31
0.0
  0
LINE
  5
2CD
  8
BLATTANSICHT_1_GEOMETRIEAN
  6
VOLLINIE
 62
    18
 10
-7.55388702502558
 20
-48.03040748346882
 30
0.0
 11
-7.579067536429993
 21
-47.87142399062868
 31
0.0
  0
LINE
  5
2CE
  8
BLATTANSICHT_1_GEOMETRIEAN
  6
VOLLINIE
 62
    18
 10
-7.579067536429993
 20
-47.87142399062868
 30
0.0
 11
-7.591696723837649
 21
-47.71095495069991
 31
0.0
  0
LINE
  5
2CF
  8
BLATTANSICHT_1_GEOMETRIEAN
  6
VOLLINIE
 62
    18
 10
-11.54327720208533
 20
-47.63047231102067
 30
0.0
 11
-11.54327720208533
 21
-50.13047234418867
 31
0.0
  0
LINE
  5
2D0
  8
BLATTANSICHT_1_GEOMETRIEAN
  6
VOLLINIE
 62
    18
 10
-7.484483968636481
 20
-48.28942321963324
 30
0.0
 11
-7.523425145325743
 21
-48.16105136192594
 31
0.0
  0
LINE
  5
2D1
  8
BLATTANSICHT_1_GEOMETRIEAN
  6
VOLLINIE
 62
    18
 10
-7.437230247044669
 20
-48.41497334862119
 30
0.0
 11
-7.484483968636481
 21
-48.28942321963324
 31
0.0
  0
LINE
  5
2D2
  8
BLATTANSICHT_1_GEOMETRIEAN
  6
VOLLINIE
 62
    18
 10
-7.523425145325743
 20
-48.16105136192594
 30
0.0
 11
-7.55388702502558
 21
-48.03040748346882
 31
0.0
  0
LINE
  5
2D3
  8
BLATTANSICHT_1_GEOMETRIEAN
  6
VOLLINIE
 62
    18
 10
-7.381866325134719
 20
-48.5371641302686
 30
0.0
 11
-7.437230247044669
 21
-48.41497334862119
 31
0.0
  0
LINE
  5
2D4
  8
BLATTANSICHT_1_GEOMETRIEAN
  6
VOLLINIE
 62
    18
 10
-7.318629281978691
 20
-48.65547231824281
 30
0.0
 11
-7.381866325134719
 21
-48.5371641302686
 31
0.0
  0
LINE
  5
2D5
  8
BLATTANSICHT_1_GEOMETRIEAN
  6
VOLLINIE
 62
    18
 10
-7.247789908315599
 20
-48.76939129869768
 30
0.0
 11
-7.318629281978691
 21
-48.65547231824281
 31
0.0
  0
LINE
  5
2D6
  8
BLATTANSICHT_1_GEOMETRIEAN
  6
VOLLINIE
 62
    18
 10
-7.169651547631432
 20
-48.87843325513452
 30
0.0
 11
-7.247789908315599
 21
-48.76939129869768
 31
0.0
  0
LINE
  5
2D7
  8
BLATTANSICHT_1_GEOMETRIEAN
  6
VOLLINIE
 62
    18
 10
-7.084548801725258
 20
-48.9821312508394
 30
0.0
 11
-7.169651547631432
 21
-48.87843325513452
 31
0.0
  0
LINE
  5
2D8
  8
BLATTANSICHT_1_GEOMETRIEAN
  6
VOLLINIE
 62
    18
 10
-6.992846093650495
 20
-49.08004123503783
 30
0.0
 11
-7.084548801725258
 21
-48.9821312508394
 31
0.0
  0
LINE
  5
2D9
  8
BLATTANSICHT_1_GEOMETRIEAN
  6
VOLLINIE
 62
    18
 10
-6.894936112276959
 20
-49.17174393881137
 30
0.0
 11
-6.992846093650495
 21
-49.08004123503783
 31
0.0
  0
LINE
  5
2DA
  8
BLATTANSICHT_1_GEOMETRIEAN
  6
VOLLINIE
 62
    18
 10
-6.791238119880016
 20
-49.25684668086347
 30
0.0
 11
-6.894936112276959
 21
-49.17174393881137
 31
0.0
  0
LINE
  5
2DB
  8
BLATTANSICHT_1_GEOMETRIEAN
  6
VOLLINIE
 62
    18
 10
-6.682196167186844
 20
-49.33498503818436
 30
0.0
 11
-6.791238119880016
 21
-49.25684668086347
 31
0.0
  0
LINE
  5
2DC
  8
BLATTANSICHT_1_GEOMETRIEAN
  6
VOLLINIE
 62
    18
 10
-6.568277194361309
 20
-49.40582440699318
 30
0.0
 11
-6.682196167186844
 21
-49.33498503818436
 31
0.0
  0
LINE
  5
2DD
  8
BLATTANSICHT_1_GEOMETRIEAN
  6
VOLLINIE
 62
    18
 10
-6.449969014596655
 20
-49.46906144632642
 30
0.0
 11
-6.568277194361309
 21
-49.40582440699318
 31
0.0
  0
LINE
  5
2DE
  8
BLATTANSICHT_1_GEOMETRIEAN
  6
VOLLINIE
 62
    18
 10
-6.32777824163558
 20
-49.52442536549796
 30
0.0
 11
-6.449969014596655
 21
-49.46906144632642
 31
0.0
  0
LINE
  5
2DF
  8
BLATTANSICHT_1_GEOMETRIEAN
  6
VOLLINIE
 62
    18
 10
-6.202228108929414
 20
-49.57167908981548
 30
0.0
 11
-6.32777824163558
 21
-49.52442536549796
 31
0.0
  0
LINE
  5
2E0
  8
BLATTANSICHT_1_GEOMETRIEAN
  6
VOLLINIE
 62
    18
 10
-6.073856247249205
 20
-49.61062026870323
 30
0.0
 11
-6.202228108929414
 21
-49.57167908981548
 31
0.0
  0
LINE
  5
2E1
  8
BLATTANSICHT_1_GEOMETRIEAN
  6
VOLLINIE
 62
    18
 10
-5.943212364617865
 20
-49.6410821500539
 30
0.0
 11
-6.073856247249205
 21
-49.61062026870323
 31
0.0
  0
LINE
  5
2E2
  8
BLATTANSICHT_1_GEOMETRIEAN
  6
VOLLINIE
 62
    18
 10
-5.810855896660146
 20
-49.66293429161702
 30
0.0
 11
-5.943212364617865
 21
-49.6410821500539
 31
0.0
  0
LINE
  5
2E3
  8
BLATTANSICHT_1_GEOMETRIEAN
  6
VOLLINIE
 62
    18
 10
-5.677353615609103
 20
-49.6760831187627
 30
0.0
 11
-5.810855896660146
 21
-49.66293429161702
 31
0.0
  0
LINE
  5
2E4
  8
BLATTANSICHT_1_GEOMETRIEAN
  6
VOLLINIE
 62
    18
 10
-5.543277198744413
 20
-49.68047232708467
 30
0.0
 11
-5.677353615609103
 21
-49.6760831187627
 31
0.0
  0
LINE
  5
2E5
  8
BLATTANSICHT_1_GEOMETRIEAN
  6
VOLLINIE
 62
    18
 10
-5.143342035794881
 20
-74.64108215106187
 30
0.0
 11
-5.275698502787585
 21
-74.6629342924783
 31
0.0
  0
LINE
  5
2E6
  8
BLATTANSICHT_1_GEOMETRIEAN
  6
VOLLINIE
 62
    18
 10
-5.409200782859818
 20
-74.6760831196043
 30
0.0
 11
-5.543277198744413
 21
-74.68047232708467
 31
0.0
  0
LINE
  5
2E7
  8
BLATTANSICHT_1_GEOMETRIEAN
  6
VOLLINIE
 62
    18
 10
-5.275698502787585
 20
-74.6629342924783
 30
0.0
 11
-5.409200782859818
 21
-74.6760831196043
 31
0.0
  0
LINE
  5
2E8
  8
BLATTANSICHT_1_GEOMETRIEAN
  6
VOLLINIE
 62
    18
 10
-5.012698152752255
 20
-74.61062026962117
 30
0.0
 11
-5.143342035794881
 21
-74.64108215106187
 31
0.0
  0
LINE
  5
2E9
  8
BLATTANSICHT_1_GEOMETRIEAN
  6
VOLLINIE
 62
    18
 10
-4.884326290675525
 20
-74.57167909059031
 30
0.0
 11
-5.012698152752255
 21
-74.61062026962117
 31
0.0
  0
LINE
  5
2EA
  8
BLATTANSICHT_1_GEOMETRIEAN
  6
VOLLINIE
 62
    18
 10
-4.758776157592758
 20
-74.52442536607826
 30
0.0
 11
-4.884326290675525
 21
-74.57167909059031
 31
0.0
  0
LINE
  5
2EB
  8
BLATTANSICHT_1_GEOMETRIEAN
  6
VOLLINIE
 62
    18
 10
-4.602364371590083
 20
-74.45178587741671
 30
0.0
 11
-4.758776157592758
 21
-74.52442536607826
 31
0.0
  0
LINE
  5
2EC
  8
BLATTANSICHT_1_GEOMETRIEAN
  6
VOLLINIE
 62
    18
 10
-4.4526114367857
 20
-74.36625693125795
 30
0.0
 11
-4.602364371590083
 21
-74.45178587741671
 31
0.0
  0
LINE
  5
2ED
  8
BLATTANSICHT_1_GEOMETRIEAN
  6
VOLLINIE
 62
    18
 10
-4.310577156467148
 20
-74.26844381696368
 30
0.0
 11
-4.4526114367857
 21
-74.36625693125795
 31
0.0
  0
LINE
  5
2EE
  8
BLATTANSICHT_1_GEOMETRIEAN
  6
VOLLINIE
 62
    18
 10
-4.177266708913061
 20
-74.1590387590985
 30
0.0
 11
-4.310577156467148
 21
-74.26844381696368
 31
0.0
  0
LINE
  5
2EF
  8
BLATTANSICHT_1_GEOMETRIEAN
  6
VOLLINIE
 62
    18
 10
-4.053623533734608
 20
-74.03881601854853
 30
0.0
 11
-4.177266708913061
 21
-74.1590387590985
 31
0.0
  0
LINE
  5
2F0
  8
BLATTANSICHT_1_GEOMETRIEAN
  6
VOLLINIE
 62
    18
 10
-3.940522655142223
 20
-73.90862641306796
 30
0.0
 11
-4.053623533734608
 21
-74.03881601854853
 31
0.0
  0
LINE
  5
2F1
  8
BLATTANSICHT_1_GEOMETRIEAN
  6
VOLLINIE
 62
    18
 10
-3.838764489388931
 20
-73.76939129603177
 30
0.0
 11
-3.940522655142223
 21
-73.90862641306796
 31
0.0
  0
LINE
  5
2F2
  8
BLATTANSICHT_1_GEOMETRIEAN
  6
VOLLINIE
 62
    18
 10
-3.767925121591933
 20
-73.65547232516846
 30
0.0
 11
-3.838764489388931
 21
-73.76939129603177
 31
0.0
  0
LINE
  5
2F3
  8
BLATTANSICHT_1_GEOMETRIEAN
  6
VOLLINIE
 62
    18
 10
-3.704688083012948
 20
-73.53716414749594
 30
0.0
 11
-3.767925121591933
 21
-73.65547232516846
 31
0.0
  0
LINE
  5
2F4
  8
BLATTANSICHT_1_GEOMETRIEAN
  6
VOLLINIE
 62
    18
 10
-3.649324164325971
 20
-73.41497337673131
 30
0.0
 11
-3.704688083012948
 21
-73.53716414749594
 31
0.0
  0
LINE
  5
2F5
  8
BLATTANSICHT_1_GEOMETRIEAN
  6
VOLLINIE
 62
    18
 10
-3.602070436708319
 20
-73.28942323597343
 30
0.0
 11
-3.649324164325971
 21
-73.41497337673131
 31
0.0
  0
LINE
  5
2F6
  8
BLATTANSICHT_1_GEOMETRIEAN
  6
VOLLINIE
 62
    18
 10
-3.563129255599076
 20
-73.16105136587758
 30
0.0
 11
-3.602070436708319
 21
-73.28942323597343
 31
0.0
  0
LINE
  5
2F7
  8
BLATTANSICHT_1_GEOMETRIEAN
  6
VOLLINIE
 62
    18
 10
-3.532667373136698
 20
-73.03040747457403
 30
0.0
 11
-3.563129255599076
 21
-73.16105136587758
 31
0.0
  0
LINE
  5
2F8
  8
BLATTANSICHT_1_GEOMETRIEAN
  6
VOLLINIE
 62
    18
 10
-3.50748686269369
 20
-72.87142398315663
 30
0.0
 11
-3.532667373136698
 21
-73.03040747457403
 31
0.0
  0
LINE
  5
2F9
  8
BLATTANSICHT_1_GEOMETRIEAN
  6
VOLLINIE
 62
    18
 10
-3.494857676011002
 20
-72.71095494473123
 30
0.0
 11
-3.50748686269369
 21
-72.87142398315663
 31
0.0
  0
LINE
  5
2FA
  8
BLATTANSICHT_1_GEOMETRIEAN
  6
VOLLINIE
 62
    18
 10
-3.494857676220165
 20
-72.54998970423055
 30
0.0
 11
-3.494857676011002
 21
-72.71095494473123
 31
0.0
  0
LINE
  5
2FB
  8
BLATTANSICHT_1_GEOMETRIEAN
  6
VOLLINIE
 62
    18
 10
-3.507486863319892
 20
-72.38952066583796
 30
0.0
 11
-3.494857676220165
 21
-72.54998970423055
 31
0.0
  0
LINE
  5
2FC
  8
BLATTANSICHT_1_GEOMETRIEAN
  6
VOLLINIE
 62
    18
 10
-3.53266737417607
 20
-72.230537174486
 30
0.0
 11
-3.507486863319892
 21
-72.38952066583796
 31
0.0
  0
LINE
  5
2FD
  8
BLATTANSICHT_1_GEOMETRIEAN
  6
VOLLINIE
 62
    18
 10
-6.682196168010805
 20
-70.92595961475182
 30
0.0
 11
-6.568277195130483
 21
-70.85512024583655
 31
0.0
  0
LINE
  5
2FE
  8
BLATTANSICHT_1_GEOMETRIEAN
  6
VOLLINIE
 62
    18
 10
-6.449969015301037
 20
-70.79188320640657
 30
0.0
 11
-6.327778242266204
 21
-70.73651928714888
 31
0.0
  0
LINE
  5
2FF
  8
BLATTANSICHT_1_GEOMETRIEAN
  6
VOLLINIE
 62
    18
 10
-6.568277195130483
 20
-70.85512024583655
 30
0.0
 11
-6.449969015301037
 21
-70.79188320640657
 31
0.0
  0
LINE
  5
300
  8
BLATTANSICHT_1_GEOMETRIEAN
  6
VOLLINIE
 62
    18
 10
-6.79123812073767
 20
-71.00409797218028
 30
0.0
 11
-6.682196168010805
 21
-70.92595961475182
 31
0.0
  0
LINE
  5
301
  8
BLATTANSICHT_1_GEOMETRIEAN
  6
VOLLINIE
 62
    18
 10
-6.894936113157487
 20
-71.08920071434646
 30
0.0
 11
-6.79123812073767
 21
-71.00409797218028
 31
0.0
  0
LINE
  5
302
  8
BLATTANSICHT_1_GEOMETRIEAN
  6
VOLLINIE
 62
    18
 10
-6.992846094542338
 20
-71.18090341823965
 30
0.0
 11
-6.894936113157487
 21
-71.08920071434646
 31
0.0
  0
LINE
  5
303
  8
BLATTANSICHT_1_GEOMETRIEAN
  6
VOLLINIE
 62
    18
 10
-7.084548802605607
 20
-71.2788134025501
 30
0.0
 11
-6.992846094542338
 21
-71.18090341823965
 31
0.0
  0
LINE
  5
304
  8
BLATTANSICHT_1_GEOMETRIEAN
  6
VOLLINIE
 62
    18
 10
-7.169651548489266
 20
-71.38251139836906
 30
0.0
 11
-7.084548802605607
 21
-71.2788134025501
 31
0.0
  0
LINE
  5
305
  8
BLATTANSICHT_1_GEOMETRIEAN
  6
VOLLINIE
 62
    18
 10
-7.247789909139548
 20
-71.4915533549211
 30
0.0
 11
-7.169651548489266
 21
-71.38251139836906
 31
0.0
  0
LINE
  5
306
  8
BLATTANSICHT_1_GEOMETRIEAN
  6
VOLLINIE
 62
    18
 10
-7.318629282747708
 20
-71.60547233547479
 30
0.0
 11
-7.247789909139548
 21
-71.4915533549211
 31
0.0
  0
LINE
  5
307
  8
BLATTANSICHT_1_GEOMETRIEAN
  6
VOLLINIE
 62
    18
 10
-7.381866325839271
 20
-71.72378052354571
 30
0.0
 11
-7.318629282747708
 21
-71.60547233547479
 31
0.0
  0
LINE
  5
308
  8
BLATTANSICHT_1_GEOMETRIEAN
  6
VOLLINIE
 62
    18
 10
-7.437230247675292
 20
-71.84597130528691
 30
0.0
 11
-7.381866325839271
 21
-71.72378052354571
 31
0.0
  0
LINE
  5
309
  8
BLATTANSICHT_1_GEOMETRIEAN
  6
VOLLINIE
 62
    18
 10
-7.484483969177058
 20
-71.97152143434488
 30
0.0
 11
-7.437230247675292
 21
-71.84597130528691
 31
0.0
  0
LINE
  5
30A
  8
BLATTANSICHT_1_GEOMETRIEAN
  6
VOLLINIE
 62
    18
 10
-7.523425145769775
 20
-72.09989329211682
 30
0.0
 11
-7.484483969177058
 21
-71.97152143434488
 31
0.0
  0
LINE
  5
30B
  8
BLATTANSICHT_1_GEOMETRIEAN
  6
VOLLINIE
 62
    18
 10
-7.553887025366875
 20
-72.23053717063262
 30
0.0
 11
-7.523425145769775
 21
-72.09989329211682
 31
0.0
  0
LINE
  5
30C
  8
BLATTANSICHT_1_GEOMETRIEAN
  6
VOLLINIE
 62
    18
 10
-7.579067536635614
 20
-72.38952066349424
 30
0.0
 11
-7.553887025366875
 21
-72.23053717063262
 31
0.0
  0
LINE
  5
30D
  8
BLATTANSICHT_1_GEOMETRIEAN
  6
VOLLINIE
 62
    18
 10
-7.553887026042753
 20
-73.03040747835513
 30
0.0
 11
-7.579067537042818
 21
-72.87142398545096
 31
0.0
  0
LINE
  5
30E
  8
BLATTANSICHT_1_GEOMETRIEAN
  6
VOLLINIE
 62
    18
 10
-7.579067537042818
 20
-72.87142398545096
 30
0.0
 11
-7.591696724042345
 21
-72.71095494549006
 31
0.0
  0
LINE
  5
30F
  8
BLATTANSICHT_1_GEOMETRIEAN
  6
VOLLINIE
 62
    18
 10
-7.591696724042345
 20
-72.71095494549006
 30
0.0
 11
-7.591696723906333
 21
-72.54998970343378
 31
0.0
  0
LINE
  5
310
  8
BLATTANSICHT_1_GEOMETRIEAN
  6
VOLLINIE
 62
    18
 10
-7.591696723906333
 20
-72.54998970343378
 30
0.0
 11
-7.579067536635614
 21
-72.38952066349424
 31
0.0
  0
LINE
  5
311
  8
BLATTANSICHT_1_GEOMETRIEAN
  6
VOLLINIE
 62
    18
 10
-5.543277198744413
 20
-74.68047232708467
 30
0.0
 11
-5.677353615954064
 21
-74.67608311874008
 31
0.0
  0
LINE
  5
312
  8
BLATTANSICHT_1_GEOMETRIEAN
  6
VOLLINIE
 62
    18
 10
-5.677353615954064
 20
-74.67608311874008
 30
0.0
 11
-5.810855897345624
 21
-74.66293429152675
 31
0.0
  0
LINE
  5
313
  8
BLATTANSICHT_1_GEOMETRIEAN
  6
VOLLINIE
 62
    18
 10
-5.810855897345624
 20
-74.66293429152675
 30
0.0
 11
-5.943212365635039
 21
-74.64108214985156
 31
0.0
  0
LINE
  5
314
  8
BLATTANSICHT_1_GEOMETRIEAN
  6
VOLLINIE
 62
    18
 10
-11.22485797382414
 20
-45.70183552721802
 30
0.0
 11
-11.36346471622802
 21
-46.17259123758644
 31
0.0
  0
LINE
  5
315
  8
BLATTANSICHT_1_GEOMETRIEAN
  6
VOLLINIE
 62
    18
 10
-11.04824417564221
 20
-45.24398147386037
 30
0.0
 11
-11.22485797382414
 21
-45.70183552721802
 31
0.0
  0
LINE
  5
316
  8
BLATTANSICHT_1_GEOMETRIEAN
  6
VOLLINIE
 62
    18
 10
-10.83480478345233
 20
-44.8020919019695
 30
0.0
 11
-11.04824417564221
 21
-45.24398147386037
 31
0.0
  0
LINE
  5
317
  8
BLATTANSICHT_1_GEOMETRIEAN
  6
VOLLINIE
 62
    18
 10
-10.58596760462127
 20
-44.37912284126213
 30
0.0
 11
-10.83480478345233
 21
-44.8020919019695
 31
0.0
  0
LINE
  5
318
  8
BLATTANSICHT_1_GEOMETRIEAN
  6
VOLLINIE
 62
    18
 10
-10.30339724076453
 20
-43.97790375229183
 30
0.0
 11
-10.58596760462127
 21
-44.37912284126213
 31
0.0
  0
LINE
  5
319
  8
BLATTANSICHT_1_GEOMETRIEAN
  6
VOLLINIE
 62
    18
 10
-9.988983952358396
 20
-43.60111859871235
 30
0.0
 11
-10.30339724076453
 21
-43.97790375229183
 31
0.0
  0
LINE
  5
31A
  8
BLATTANSICHT_1_GEOMETRIEAN
  6
VOLLINIE
 62
    18
 10
-9.644831013802134
 20
-43.25128789284539
 30
0.0
 11
-9.988983952358396
 21
-43.60111859871235
 31
0.0
  0
LINE
  5
31B
  8
BLATTANSICHT_1_GEOMETRIEAN
  6
VOLLINIE
 62
    18
 10
-9.27324064351903
 20
-42.9307518346598
 30
0.0
 11
-9.644831013802134
 21
-43.25128789284539
 31
0.0
  0
LINE
  5
31C
  8
BLATTANSICHT_1_GEOMETRIEAN
  6
VOLLINIE
 62
    18
 10
-8.876698594085337
 20
-42.64165467062067
 30
0.0
 11
-9.27324064351903
 21
-42.9307518346598
 31
0.0
  0
LINE
  5
31D
  8
BLATTANSICHT_1_GEOMETRIEAN
  6
VOLLINIE
 62
    18
 10
-11.46313719009403
 20
-46.65309947459983
 30
0.0
 11
-11.5232086342822
 21
-47.14014586815738
 31
0.0
  0
LINE
  5
31E
  8
BLATTANSICHT_1_GEOMETRIEAN
  6
VOLLINIE
 62
    18
 10
-11.36346471622802
 20
-46.17259123758644
 30
0.0
 11
-11.46313719009403
 21
-46.65309947459983
 31
0.0
  0
LINE
  5
31F
  8
BLATTANSICHT_1_GEOMETRIEAN
  6
VOLLINIE
 62
    18
 10
-11.5232086342822
 20
-47.14014586815738
 30
0.0
 11
-11.54327720208533
 21
-47.63047231102067
 31
0.0
  0
LINE
  5
320
  8
BLATTANSICHT_1_GEOMETRIEAN
  6
VOLLINIE
 62
    18
 10
-7.553887026384048
 20
-47.2305371757463
 30
0.0
 11
-7.523425144108612
 21
-47.09989328591729
 31
0.0
  0
LINE
  5
321
  8
BLATTANSICHT_1_GEOMETRIEAN
  6
VOLLINIE
 62
    18
 10
-7.523425144108612
 20
-47.09989328591729
 30
0.0
 11
-7.484483963374976
 21
-46.97152141725252
 31
0.0
  0
LINE
  5
322
  8
BLATTANSICHT_1_GEOMETRIEAN
  6
VOLLINIE
 62
    18
 10
-7.484483963374976
 20
-46.97152141725252
 30
0.0
 11
-7.437230236316332
 21
-46.84597127786397
 31
0.0
  0
LINE
  5
323
  8
BLATTANSICHT_1_GEOMETRIEAN
  6
VOLLINIE
 62
    18
 10
-7.437230236316332
 20
-46.84597127786397
 30
0.0
 11
-7.381866317738793
 21
-46.7237805071196
 31
0.0
  0
LINE
  5
324
  8
BLATTANSICHT_1_GEOMETRIEAN
  6
VOLLINIE
 62
    18
 10
-7.381866317738793
 20
-46.7237805071196
 30
0.0
 11
-7.318629279274004
 21
-46.60547232945818
 31
0.0
  0
LINE
  5
325
  8
BLATTANSICHT_1_GEOMETRIEAN
  6
VOLLINIE
 62
    18
 10
-7.318629279274004
 20
-46.60547232945818
 30
0.0
 11
-7.24778991159522
 21
-46.49155335859628
 31
0.0
  0
LINE
  5
326
  8
BLATTANSICHT_1_GEOMETRIEAN
  6
VOLLINIE
 62
    18
 10
-8.445590527057247
 20
-42.37913179830739
 30
0.0
 11
-8.876698594085337
 21
-42.64165467062067
 31
0.0
  0
LINE
  5
327
  8
BLATTANSICHT_1_GEOMETRIEAN
  6
VOLLINIE
 62
    18
 10
-7.99394274524422
 20
-42.15377273852584
 30
0.0
 11
-8.445590527057247
 21
-42.37913179830739
 31
0.0
  0
LINE
  5
328
  8
BLATTANSICHT_1_GEOMETRIEAN
  6
VOLLINIE
 62
    18
 10
-7.524951574457458
 20
-41.96717234633359
 30
0.0
 11
-7.99394274524422
 21
-42.15377273852584
 31
0.0
  0
LINE
  5
329
  8
BLATTANSICHT_1_GEOMETRIEAN
  6
VOLLINIE
 62
    18
 10
-7.041936070744645
 20
-41.82065119490724
 30
0.0
 11
-7.524951574457458
 21
-41.96717234633359
 31
0.0
  0
LINE
  5
32A
  8
BLATTANSICHT_1_GEOMETRIEAN
  6
VOLLINIE
 62
    18
 10
-6.548314540523026
 20
-41.71524621616373
 30
0.0
 11
-7.041936070744645
 21
-41.82065119490724
 31
0.0
  0
LINE
  5
32B
  8
BLATTANSICHT_1_GEOMETRIEAN
  6
VOLLINIE
 62
    18
 10
-6.047580349184559
 20
-41.65170336238096
 30
0.0
 11
-6.548314540523026
 21
-41.71524621616373
 31
0.0
  0
LINE
  5
32C
  8
BLATTANSICHT_1_GEOMETRIEAN
  6
VOLLINIE
 62
    18
 10
-5.543277198507817
 20
-41.63047232708468
 30
0.0
 11
-6.047580349184559
 21
-41.65170336238096
 31
0.0
  0
LINE
  5
32D
  8
BLATTANSICHT_1_GEOMETRIEAN
  6
VOLLINIE
 62
    18
 10
-7.169651551045892
 20
-46.38251140170094
 30
0.0
 11
-7.084548805229371
 21
-46.27881340554193
 31
0.0
  0
LINE
  5
32E
  8
BLATTANSICHT_1_GEOMETRIEAN
  6
VOLLINIE
 62
    18
 10
-7.24778991159522
 20
-46.49155335859628
 30
0.0
 11
-7.169651551045892
 21
-46.38251140170094
 31
0.0
  0
LINE
  5
32F
  8
BLATTANSICHT_1_GEOMETRIEAN
  6
VOLLINIE
 62
    18
 10
-7.084548805229371
 20
-46.27881340554193
 30
0.0
 11
-6.992846097200337
 21
-46.18090342089766
 31
0.0
  0
LINE
  5
330
  8
BLATTANSICHT_1_GEOMETRIEAN
  6
VOLLINIE
 62
    18
 10
-6.992846097200337
 20
-46.18090342089766
 30
0.0
 11
-6.874645696728728
 21
-46.0716400950227
 31
0.0
  0
LINE
  5
331
  8
BLATTANSICHT_1_GEOMETRIEAN
  6
VOLLINIE
 62
    18
 10
-6.748236967039062
 20
-45.97198748787592
 30
0.0
 11
-6.614399259957382
 21
-45.8825599908964
 31
0.0
  0
LINE
  5
332
  8
BLATTANSICHT_1_GEOMETRIEAN
  6
VOLLINIE
 62
    18
 10
-6.874645696728728
 20
-46.0716400950227
 30
0.0
 11
-6.748236967039062
 21
-45.97198748787592
 31
0.0
  0
LINE
  5
333
  8
BLATTANSICHT_1_GEOMETRIEAN
  6
VOLLINIE
 62
    18
 10
-6.614399259957382
 20
-45.8825599908964
 30
0.0
 11
-6.473957729424082
 21
-45.80390895432109
 31
0.0
  0
LINE
  5
334
  8
BLATTANSICHT_1_GEOMETRIEAN
  6
VOLLINIE
 62
    18
 10
-6.473957729424082
 20
-45.80390895432109
 30
0.0
 11
-6.3277782441457
 21
-45.73651928792741
 31
0.0
  0
LINE
  5
335
  8
BLATTANSICHT_1_GEOMETRIEAN
  6
VOLLINIE
 62
    18
 10
-6.3277782441457
 20
-45.73651928792741
 30
0.0
 11
-6.202228111081759
 21
-45.6892655633008
 31
0.0
  0
LINE
  5
336
  8
BLATTANSICHT_1_GEOMETRIEAN
  6
VOLLINIE
 62
    18
 10
-6.073856249015903
 20
-45.65032438415581
 30
0.0
 11
-5.943212365976334
 21
-45.61986250260197
 31
0.0
  0
LINE
  5
337
  8
BLATTANSICHT_1_GEOMETRIEAN
  6
VOLLINIE
 62
    18
 10
-6.202228111081759
 20
-45.6892655633008
 30
0.0
 11
-6.073856249015903
 21
-45.65032438415581
 31
0.0
  0
LINE
  5
338
  8
BLATTANSICHT_1_GEOMETRIEAN
  6
VOLLINIE
 62
    18
 10
-5.14334203581708
 20
-45.61986250321905
 30
0.0
 11
-5.012698152781131
 21
-45.65032438465642
 31
0.0
  0
LINE
  5
339
  8
BLATTANSICHT_1_GEOMETRIEAN
  6
VOLLINIE
 62
    18
 10
-5.012698152781131
 20
-45.65032438465642
 30
0.0
 11
-4.884326290710696
 21
-45.68926556368309
 31
0.0
  0
LINE
  5
33A
  8
BLATTANSICHT_1_GEOMETRIEAN
  6
VOLLINIE
 62
    18
 10
-4.884326290710696
 20
-45.68926556368309
 30
0.0
 11
-4.758776157633771
 21
-45.73651928819007
 31
0.0
  0
LINE
  5
33B
  8
BLATTANSICHT_1_GEOMETRIEAN
  6
VOLLINIE
 62
    18
 10
-4.758776157633771
 20
-45.73651928819007
 30
0.0
 11
-4.602364371636138
 21
-45.80915877684482
 31
0.0
  0
LINE
  5
33C
  8
BLATTANSICHT_1_GEOMETRIEAN
  6
VOLLINIE
 62
    18
 10
-4.452611436835896
 20
-45.89468772299584
 30
0.0
 11
-4.310577156520446
 21
-45.99250083728155
 31
0.0
  0
LINE
  5
33D
  8
BLATTANSICHT_1_GEOMETRIEAN
  6
VOLLINIE
 62
    18
 10
-4.602364371636138
 20
-45.80915877684482
 30
0.0
 11
-4.452611436835896
 21
-45.89468772299584
 31
0.0
  0
LINE
  5
33E
  8
BLATTANSICHT_1_GEOMETRIEAN
  6
VOLLINIE
 62
    18
 10
-4.310577156520446
 20
-45.99250083728155
 30
0.0
 11
-4.177266708968344
 21
-46.10190589513743
 31
0.0
  0
LINE
  5
33F
  8
BLATTANSICHT_1_GEOMETRIEAN
  6
VOLLINIE
 62
    18
 10
-4.177266708968344
 20
-46.10190589513743
 30
0.0
 11
-4.053623533790646
 21
-46.22212863567752
 31
0.0
  0
LINE
  5
340
  8
BLATTANSICHT_1_GEOMETRIEAN
  6
VOLLINIE
 62
    18
 10
-3.94052265519772
 20
-46.35231824114777
 30
0.0
 11
-3.83876448944251
 21
-46.49155335817336
 31
0.0
  0
LINE
  5
341
  8
BLATTANSICHT_1_GEOMETRIEAN
  6
VOLLINIE
 62
    18
 10
-4.053623533790646
 20
-46.22212863567752
 30
0.0
 11
-3.94052265519772
 21
-46.35231824114777
 31
0.0
  0
LINE
  5
342
  8
BLATTANSICHT_1_GEOMETRIEAN
  6
VOLLINIE
 62
    18
 10
-3.83876448944251
 20
-46.49155335817336
 30
0.0
 11
-3.767925121641948
 21
-46.60547232903023
 31
0.0
  0
LINE
  5
343
  8
BLATTANSICHT_1_GEOMETRIEAN
  6
VOLLINIE
 62
    18
 10
-3.767925121641948
 20
-46.60547232903023
 30
0.0
 11
-3.704688083058766
 21
-46.72378050669647
 31
0.0
  0
LINE
  5
344
  8
BLATTANSICHT_1_GEOMETRIEAN
  6
VOLLINIE
 62
    18
 10
-3.704688083058766
 20
-46.72378050669647
 30
0.0
 11
-3.649324164366984
 21
-46.845971277455
 31
0.0
  0
LINE
  5
345
  8
BLATTANSICHT_1_GEOMETRIEAN
  6
VOLLINIE
 62
    18
 10
-3.649324164366984
 20
-46.845971277455
 30
0.0
 11
-3.602070436743478
 21
-46.97152141820832
 31
0.0
  0
LINE
  5
346
  8
BLATTANSICHT_1_GEOMETRIEAN
  6
VOLLINIE
 62
    18
 10
-3.602070436743478
 20
-46.97152141820832
 30
0.0
 11
-3.563129255627953
 21
-47.09989328829995
 31
0.0
  0
LINE
  5
347
  8
BLATTANSICHT_1_GEOMETRIEAN
  6
VOLLINIE
 62
    18
 10
-3.563129255627953
 20
-47.09989328829995
 30
0.0
 11
-3.532667373158897
 21
-47.23053717959968
 31
0.0
  0
LINE
  5
348
  8
BLATTANSICHT_1_GEOMETRIEAN
  6
VOLLINIE
 62
    18
 10
0.4567228004146626
 20
-72.63047232708466
 30
0.0
 11
0.4567228004146626
 21
-47.6304723293928
 31
0.0
  0
LINE
  5
349
  8
BLATTANSICHT_1_GEOMETRIEAN
  6
VOLLINIE
 62
    18
 10
-5.943212365635039
 20
-74.64108214985156
 30
0.0
 11
-6.073856248572052
 21
-74.61062026834875
 31
0.0
  0
LINE
  5
34A
  8
BLATTANSICHT_1_GEOMETRIEAN
  6
VOLLINIE
 62
    18
 10
-6.073856248572052
 20
-74.61062026834875
 30
0.0
 11
-6.202228110541024
 21
-74.57167908926839
 31
0.0
  0
LINE
  5
34B
  8
BLATTANSICHT_1_GEOMETRIEAN
  6
VOLLINIE
 62
    18
 10
-6.202228110541024
 20
-74.57167908926839
 30
0.0
 11
-6.327778243515066
 21
-74.52442536471943
 31
0.0
  0
LINE
  5
34C
  8
BLATTANSICHT_1_GEOMETRIEAN
  6
VOLLINIE
 62
    18
 10
-6.327778243515066
 20
-74.52442536471943
 30
0.0
 11
-6.473957728712774
 21
-74.45703569842696
 31
0.0
  0
LINE
  5
34D
  8
BLATTANSICHT_1_GEOMETRIEAN
  6
VOLLINIE
 62
    18
 10
-6.473957728712774
 20
-74.45703569842696
 30
0.0
 11
-6.614399259178022
 21
-74.37838466196682
 31
0.0
  0
LINE
  5
34E
  8
BLATTANSICHT_1_GEOMETRIEAN
  6
VOLLINIE
 62
    18
 10
-6.614399259178022
 20
-74.37838466196682
 30
0.0
 11
-6.748236966205954
 21
-74.288957165115
 31
0.0
  0
LINE
  5
34F
  8
BLATTANSICHT_1_GEOMETRIEAN
  6
VOLLINIE
 62
    18
 10
-6.874645695857663
 20
-74.18930455810687
 30
0.0
 11
-6.992846096308494
 21
-74.0800412323798
 31
0.0
  0
LINE
  5
350
  8
BLATTANSICHT_1_GEOMETRIEAN
  6
VOLLINIE
 62
    18
 10
-6.748236966205954
 20
-74.288957165115
 30
0.0
 11
-6.874645695857663
 21
-74.18930455810687
 31
0.0
  0
LINE
  5
351
  8
BLATTANSICHT_1_GEOMETRIEAN
  6
VOLLINIE
 62
    18
 10
-6.992846096308494
 20
-74.0800412323798
 30
0.0
 11
-7.084548804349023
 21
-73.98213124784755
 31
0.0
  0
LINE
  5
352
  8
BLATTANSICHT_1_GEOMETRIEAN
  6
VOLLINIE
 62
    18
 10
-7.169651550188059
 20
-73.87843325180265
 30
0.0
 11
-7.247789910771259
 21
-73.7693912950225
 31
0.0
  0
LINE
  5
353
  8
BLATTANSICHT_1_GEOMETRIEAN
  6
VOLLINIE
 62
    18
 10
-7.084548804349023
 20
-73.98213124784755
 30
0.0
 11
-7.169651550188059
 21
-73.87843325180265
 31
0.0
  0
LINE
  5
354
  8
BLATTANSICHT_1_GEOMETRIEAN
  6
VOLLINIE
 62
    18
 10
-7.247789910771259
 20
-73.7693912950225
 30
0.0
 11
-7.318629278504988
 21
-73.65547232425942
 31
0.0
  0
LINE
  5
355
  8
BLATTANSICHT_1_GEOMETRIEAN
  6
VOLLINIE
 62
    18
 10
-7.381866317034241
 20
-73.53716414669474
 30
0.0
 11
-7.437230235685709
 21
-73.41497337604413
 31
0.0
  0
LINE
  5
356
  8
BLATTANSICHT_1_GEOMETRIEAN
  6
VOLLINIE
 62
    18
 10
-7.318629278504988
 20
-73.65547232425942
 30
0.0
 11
-7.381866317034241
 21
-73.53716414669474
 31
0.0
  0
LINE
  5
357
  8
BLATTANSICHT_1_GEOMETRIEAN
  6
VOLLINIE
 62
    18
 10
-7.437230235685709
 20
-73.41497337604413
 30
0.0
 11
-7.484483962834401
 21
-73.28942323672561
 31
0.0
  0
LINE
  5
358
  8
BLATTANSICHT_1_GEOMETRIEAN
  6
VOLLINIE
 62
    18
 10
-7.523425143664579
 20
-73.16105136812547
 30
0.0
 11
-7.553887026042753
 21
-73.03040747835513
 31
0.0
  0
LINE
  5
359
  8
BLATTANSICHT_1_GEOMETRIEAN
  6
VOLLINIE
 62
    18
 10
-7.484483962834401
 20
-73.28942323672561
 30
0.0
 11
-7.523425143664579
 21
-73.16105136812547
 31
0.0
  0
LINE
  5
35A
  8
BLATTANSICHT_1_GEOMETRIEAN
  6
VOLLINIE
 62
    18
 10
-11.54327719958533
 20
-70.13047232708465
 30
0.0
 11
-11.54327719958533
 21
-72.63047232708466
 31
0.0
  0
LINE
  5
35B
  8
BLATTANSICHT_1_GEOMETRIEAN
  6
VOLLINIE
 62
    18
 10
-3.5631292539668
 20
-72.09989329449947
 30
0.0
 11
-3.53266737417607
 21
-72.230537174486
 31
0.0
  0
LINE
  5
35C
  8
BLATTANSICHT_1_GEOMETRIEAN
  6
VOLLINIE
 62
    18
 10
-3.602070430941409
 20
-71.97152143530069
 30
0.0
 11
-3.5631292539668
 21
-72.09989329449947
 31
0.0
  0
LINE
  5
35D
  8
BLATTANSICHT_1_GEOMETRIEAN
  6
VOLLINIE
 62
    18
 10
-3.649324153008036
 20
-71.84597130487793
 30
0.0
 11
-3.602070430941409
 21
-71.97152143530069
 31
0.0
  0
LINE
  5
35E
  8
BLATTANSICHT_1_GEOMETRIEAN
  6
VOLLINIE
 62
    18
 10
-3.7046880749583
 20
-71.72378052312258
 30
0.0
 11
-3.649324153008036
 21
-71.84597130487793
 31
0.0
  0
LINE
  5
35F
  8
BLATTANSICHT_1_GEOMETRIEAN
  6
VOLLINIE
 62
    18
 10
-3.767925118168257
 20
-71.60547233504685
 30
0.0
 11
-3.7046880749583
 21
-71.72378052312258
 31
0.0
  0
LINE
  5
360
  8
BLATTANSICHT_1_GEOMETRIEAN
  6
VOLLINIE
 62
    18
 10
-3.838764491898194
 20
-71.49155335449818
 30
0.0
 11
-3.767925118168257
 21
-71.60547233504685
 31
0.0
  0
LINE
  5
361
  8
BLATTANSICHT_1_GEOMETRIEAN
  6
VOLLINIE
 62
    18
 10
-3.916902852659989
 20
-71.38251139797819
 30
0.0
 11
-3.838764491898194
 21
-71.49155335449818
 31
0.0
  0
LINE
  5
362
  8
BLATTANSICHT_1_GEOMETRIEAN
  6
VOLLINIE
 62
    18
 10
-4.002005598654799
 20
-71.27881340220011
 30
0.0
 11
-3.916902852659989
 21
-71.38251139797819
 31
0.0
  0
LINE
  5
363
  8
BLATTANSICHT_1_GEOMETRIEAN
  6
VOLLINIE
 62
    18
 10
-4.093708306828171
 20
-71.18090341793949
 30
0.0
 11
-4.002005598654799
 21
-71.27881340220011
 31
0.0
  0
LINE
  5
364
  8
BLATTANSICHT_1_GEOMETRIEAN
  6
VOLLINIE
 62
    18
 10
-4.191618288304332
 20
-71.08920071411998
 30
0.0
 11
-4.093708306828171
 21
-71.18090341793949
 31
0.0
  0
LINE
  5
365
  8
BLATTANSICHT_1_GEOMETRIEAN
  6
VOLLINIE
 62
    18
 10
-4.295316280811129
 20
-71.00409797203413
 30
0.0
 11
-4.191618288304332
 21
-71.08920071411998
 31
0.0
  0
LINE
  5
366
  8
BLATTANSICHT_1_GEOMETRIEAN
  6
VOLLINIE
 62
    18
 10
-4.404358233620168
 20
-70.92595961469242
 30
0.0
 11
-4.295316280811129
 21
-71.00409797203413
 31
0.0
  0
LINE
  5
367
  8
BLATTANSICHT_1_GEOMETRIEAN
  6
VOLLINIE
 62
    18
 10
-4.518277206557205
 20
-70.85512024588157
 30
0.0
 11
-4.404358233620168
 21
-70.92595961469242
 31
0.0
  0
LINE
  5
368
  8
BLATTANSICHT_1_GEOMETRIEAN
  6
VOLLINIE
 62
    18
 10
-4.636585386436202
 20
-70.79188320655913
 30
0.0
 11
-4.518277206557205
 21
-70.85512024588157
 31
0.0
  0
LINE
  5
369
  8
BLATTANSICHT_1_GEOMETRIEAN
  6
VOLLINIE
 62
    18
 10
-4.758776159513268
 20
-70.73651928741157
 30
0.0
 11
-4.636585386436202
 21
-70.79188320655913
 31
0.0
  0
LINE
  5
36A
  8
BLATTANSICHT_1_GEOMETRIEAN
  6
VOLLINIE
 62
    18
 10
-4.884326292322307
 20
-70.689265563136
 30
0.0
 11
-4.758776159513268
 21
-70.73651928741157
 31
0.0
  0
LINE
  5
36B
  8
BLATTANSICHT_1_GEOMETRIEAN
  6
VOLLINIE
 62
    18
 10
-5.012698154103977
 20
-70.65032438430195
 30
0.0
 11
-4.884326292322307
 21
-70.689265563136
 31
0.0
  0
LINE
  5
36C
  8
BLATTANSICHT_1_GEOMETRIEAN
  6
VOLLINIE
 62
    18
 10
-5.143342036834254
 20
-70.61986250301672
 30
0.0
 11
-5.012698154103977
 21
-70.65032438430195
 31
0.0
  0
LINE
  5
36D
  8
BLATTANSICHT_1_GEOMETRIEAN
  6
VOLLINIE
 62
    18
 10
-5.275698503644269
 20
-70.59801036169424
 30
0.0
 11
-5.143342036834254
 21
-70.61986250301672
 31
0.0
  0
LINE
  5
36E
  8
BLATTANSICHT_1_GEOMETRIEAN
  6
VOLLINIE
 62
    18
 10
-5.409200783526807
 20
-70.58486153463731
 30
0.0
 11
-5.275698503644269
 21
-70.59801036169424
 31
0.0
  0
LINE
  5
36F
  8
BLATTANSICHT_1_GEOMETRIEAN
  6
VOLLINIE
 62
    18
 10
-5.543277199217186
 20
-70.58047232708465
 30
0.0
 11
-5.409200783526807
 21
-70.58486153463731
 31
0.0
  0
LINE
  5
370
  8
BLATTANSICHT_1_GEOMETRIEAN
  6
VOLLINIE
 62
    18
 10
-5.67735361628426
 20
-70.58486153366718
 30
0.0
 11
-5.543277199217186
 21
-70.58047232708465
 31
0.0
  0
LINE
  5
371
  8
BLATTANSICHT_1_GEOMETRIEAN
  6
VOLLINIE
 62
    18
 10
-5.810855897168056
 20
-70.59801036083549
 30
0.0
 11
-5.67735361628426
 21
-70.58486153366718
 31
0.0
  0
LINE
  5
372
  8
BLATTANSICHT_1_GEOMETRIEAN
  6
VOLLINIE
 62
    18
 10
-5.94321236495916
 20
-70.61986250239963
 30
0.0
 11
-5.810855897168056
 21
-70.59801036083549
 31
0.0
  0
LINE
  5
373
  8
BLATTANSICHT_1_GEOMETRIEAN
  6
VOLLINIE
 62
    18
 10
-6.073856247693056
 20
-70.65032438380133
 30
0.0
 11
-5.94321236495916
 21
-70.61986250239963
 31
0.0
  0
LINE
  5
374
  8
BLATTANSICHT_1_GEOMETRIEAN
  6
VOLLINIE
 62
    18
 10
-6.202228109470159
 20
-70.68926556275372
 30
0.0
 11
-6.073856247693056
 21
-70.65032438380133
 31
0.0
  0
LINE
  5
375
  8
BLATTANSICHT_1_GEOMETRIEAN
  6
VOLLINIE
 62
    18
 10
-6.327778242266204
 20
-70.73651928714888
 30
0.0
 11
-6.202228109470159
 21
-70.68926556275372
 31
0.0
  0
LINE
  5
376
  8
BLATTANSICHT_1_GEOMETRIEAN
  6
VOLLINIE
 62
    18
 10
-19.54327719958533
 20
-70.13047232708465
 30
0.0
 11
-11.54327719958533
 21
-70.13047232708465
 31
0.0
  0
LINE
  5
377
  8
BLATTANSICHT_1_GEOMETRIEAN
  6
VOLLINIE
 62
    18
 10
-11.54327720208533
 20
-50.13047234418867
 30
0.0
 11
-19.54327719958533
 21
-50.1304723297853
 31
0.0
  0
LINE
  5
378
  8
BLATTANSICHT_1_GEOMETRIEAN
  6
VOLLINIE
 62
    18
 10
-7.362193244263601
 20
-78.3481243296476
 30
0.0
 11
-7.347511992960899
 21
-78.35277403217782
 31
0.0
  0
LINE
  5
379
  8
BLATTANSICHT_1_GEOMETRIEAN
  6
VOLLINIE
 62
    18
 10
-7.710727196708258
 20
-78.2253057035108
 30
0.0
 11
-7.362193244263601
 21
-78.3481243296476
 31
0.0
  0
LINE
  5
37A
  8
BLATTANSICHT_1_GEOMETRIEAN
  6
VOLLINIE
 62
    18
 10
-11.54043151786554
 20
-72.81524267842168
 30
0.0
 11
-11.53043074020569
 21
-73.02289109797458
 31
0.0
  0
LINE
  5
37B
  8
BLATTANSICHT_1_GEOMETRIEAN
  6
VOLLINIE
 62
    18
 10
-11.54327719958533
 20
-72.63047232708466
 30
0.0
 11
-11.54043151786554
 21
-72.81524267842168
 31
0.0
  0
LINE
  5
37C
  8
BLATTANSICHT_1_GEOMETRIEAN
  6
VOLLINIE
 62
    18
 10
-11.51768225735554
 20
-73.18408248386447
 30
0.0
 11
-11.4919463700026
 21
-73.4136294702571
 31
0.0
  0
LINE
  5
37D
  8
BLATTANSICHT_1_GEOMETRIEAN
  6
VOLLINIE
 62
    18
 10
-11.53043074020569
 20
-73.02289109797458
 30
0.0
 11
-11.51768225735554
 21
-73.18408248386447
 31
0.0
  0
LINE
  5
37E
  8
BLATTANSICHT_1_GEOMETRIEAN
  6
VOLLINIE
 62
    18
 10
-11.47227003207289
 20
-73.55082225635678
 30
0.0
 11
-11.42798888590259
 21
-73.80101424351429
 31
0.0
  0
LINE
  5
37F
  8
BLATTANSICHT_1_GEOMETRIEAN
  6
VOLLINIE
 62
    18
 10
-11.4919463700026
 20
-73.4136294702571
 30
0.0
 11
-11.47227003207289
 21
-73.55082225635678
 31
0.0
  0
LINE
  5
380
  8
BLATTANSICHT_1_GEOMETRIEAN
  6
VOLLINIE
 62
    18
 10
-11.40436710614294
 20
-73.91407082632364
 30
0.0
 11
-11.33883216194658
 21
-74.1833865831306
 31
0.0
  0
LINE
  5
381
  8
BLATTANSICHT_1_GEOMETRIEAN
  6
VOLLINIE
 62
    18
 10
-11.42798888590259
 20
-73.80101424351429
 30
0.0
 11
-11.40436710614294
 21
-73.91407082632364
 31
0.0
  0
LINE
  5
382
  8
BLATTANSICHT_1_GEOMETRIEAN
  6
VOLLINIE
 62
    18
 10
-11.31423105862225
 20
-74.27245026751716
 30
0.0
 11
-11.22485798178177
 21
-74.55910910546055
 31
0.0
  0
LINE
  5
383
  8
BLATTANSICHT_1_GEOMETRIEAN
  6
VOLLINIE
 62
    18
 10
-11.33883216194658
 20
-74.1833865831306
 30
0.0
 11
-11.31423105862225
 21
-74.27245026751716
 31
0.0
  0
LINE
  5
384
  8
BLATTANSICHT_1_GEOMETRIEAN
  6
VOLLINIE
 62
    18
 10
-11.202203806413
 20
-74.62460112396262
 30
0.0
 11
-11.08655440034753
 21
-74.92657290897415
 31
0.0
  0
LINE
  5
385
  8
BLATTANSICHT_1_GEOMETRIEAN
  6
VOLLINIE
 62
    18
 10
-11.22485798178177
 20
-74.55910910546055
 30
0.0
 11
-11.202203806413
 21
-74.62460112396262
 31
0.0
  0
LINE
  5
386
  8
BLATTANSICHT_1_GEOMETRIEAN
  6
VOLLINIE
 62
    18
 10
-10.73942962192208
 20
-75.63047232852398
 30
0.0
 11
-10.54489151091206
 21
-75.9446621648477
 31
0.0
  0
LINE
  5
387
  8
BLATTANSICHT_1_GEOMETRIEAN
  6
VOLLINIE
 62
    18
 10
-10.54489151091206
 20
-75.9446621648477
 30
0.0
 11
-10.53209486870679
 21
-75.96389373280209
 31
0.0
  0
LINE
  5
388
  8
BLATTANSICHT_1_GEOMETRIEAN
  6
VOLLINIE
 62
    18
 10
-10.09970669951358
 20
-76.53418212831012
 30
0.0
 11
-10.05431603535114
 21
-76.58654722830737
 31
0.0
  0
LINE
  5
389
  8
BLATTANSICHT_1_GEOMETRIEAN
  6
VOLLINIE
 62
    18
 10
-10.30339723454745
 20
-76.28304091037108
 30
0.0
 11
-10.09970669951358
 21
-76.53418212831012
 31
0.0
  0
LINE
  5
38A
  8
BLATTANSICHT_1_GEOMETRIEAN
  6
VOLLINIE
 62
    18
 10
-9.85074873797199
 20
-76.80727600286222
 30
0.0
 11
-9.785917875066282
 21
-76.8731130259456
 31
0.0
  0
LINE
  5
38B
  8
BLATTANSICHT_1_GEOMETRIEAN
  6
VOLLINIE
 62
    18
 10
-10.05431603535114
 20
-76.58654722830737
 30
0.0
 11
-9.85074873797199
 21
-76.80727600286222
 31
0.0
  0
LINE
  5
38C
  8
BLATTANSICHT_1_GEOMETRIEAN
  6
VOLLINIE
 62
    18
 10
-7.006759520235606
 20
-78.44925394329472
 30
0.0
 11
-6.841914880877705
 21
-78.48824836968622
 31
0.0
  0
LINE
  5
38D
  8
BLATTANSICHT_1_GEOMETRIEAN
  6
VOLLINIE
 62
    18
 10
-7.347511992960899
 20
-78.35277403217782
 30
0.0
 11
-7.006759520235606
 21
-78.44925394329472
 31
0.0
  0
LINE
  5
38E
  8
BLATTANSICHT_1_GEOMETRIEAN
  6
VOLLINIE
 62
    18
 10
-6.645774306484763
 20
-78.52831092518807
 30
0.0
 11
-6.326434351963218
 21
-78.5791414947301
 31
0.0
  0
LINE
  5
38F
  8
BLATTANSICHT_1_GEOMETRIEAN
  6
VOLLINIE
 62
    18
 10
-6.841914880877705
 20
-78.48824836968622
 30
0.0
 11
-6.645774306484763
 21
-78.52831092518807
 31
0.0
  0
LINE
  5
390
  8
BLATTANSICHT_1_GEOMETRIEAN
  6
VOLLINIE
 62
    18
 10
-6.326434351963218
 20
-78.5791414947301
 30
0.0
 11
-6.280606943573636
 21
-78.58499538511629
 31
0.0
  0
LINE
  5
391
  8
BLATTANSICHT_1_GEOMETRIEAN
  6
VOLLINIE
 62
    18
 10
-6.280606943573636
 20
-78.58499538511629
 30
0.0
 11
-5.912642636389008
 21
-78.61909229950693
 31
0.0
  0
LINE
  5
392
  8
BLATTANSICHT_1_GEOMETRIEAN
  6
VOLLINIE
 62
    18
 10
-5.912642636389008
 20
-78.61909229950693
 30
0.0
 11
-5.804993524276297
 21
-78.62476165574894
 31
0.0
  0
LINE
  5
393
  8
BLATTANSICHT_1_GEOMETRIEAN
  6
VOLLINIE
 62
    18
 10
-5.804993524276297
 20
-78.62476165574894
 30
0.0
 11
-5.543277199585349
 21
-78.63047232708468
 31
0.0
  0
LINE
  5
394
  8
BLATTANSICHT_1_GEOMETRIEAN
  6
VOLLINIE
 62
    18
 10
-5.543277199585349
 20
-78.63047232708468
 30
0.0
 11
-5.281560877348144
 21
-78.62476165577313
 31
0.0
  0
LINE
  5
395
  8
BLATTANSICHT_1_GEOMETRIEAN
  6
VOLLINIE
 62
    18
 10
-5.281560877348144
 20
-78.62476165577313
 30
0.0
 11
-5.173911762781691
 21
-78.61909229950693
 31
0.0
  0
LINE
  5
396
  8
BLATTANSICHT_1_GEOMETRIEAN
  6
VOLLINIE
 62
    18
 10
-5.173911762781691
 20
-78.61909229950693
 30
0.0
 11
-4.805947455597062
 21
-78.58499538511629
 31
0.0
  0
LINE
  5
397
  8
BLATTANSICHT_1_GEOMETRIEAN
  6
VOLLINIE
 62
    18
 10
-4.805947455597062
 20
-78.58499538511629
 30
0.0
 11
-4.760120049657004
 21
-78.57914149480247
 31
0.0
  0
LINE
  5
398
  8
BLATTANSICHT_1_GEOMETRIEAN
  6
VOLLINIE
 62
    18
 10
-4.440780092685935
 20
-78.52831092518808
 30
0.0
 11
-4.244639520734113
 21
-78.48824836980624
 31
0.0
  0
LINE
  5
399
  8
BLATTANSICHT_1_GEOMETRIEAN
  6
VOLLINIE
 62
    18
 10
-4.760120049657004
 20
-78.57914149480247
 30
0.0
 11
-4.440780092685935
 21
-78.52831092518808
 31
0.0
  0
LINE
  5
39A
  8
BLATTANSICHT_1_GEOMETRIEAN
  6
VOLLINIE
 62
    18
 10
-4.079794878935092
 20
-78.44925394329474
 30
0.0
 11
-3.7390424086384
 21
-78.35277403234458
 31
0.0
  0
LINE
  5
39B
  8
BLATTANSICHT_1_GEOMETRIEAN
  6
VOLLINIE
 62
    18
 10
-4.244639520734113
 20
-78.48824836980624
 30
0.0
 11
-4.079794878935092
 21
-78.44925394329474
 31
0.0
  0
LINE
  5
39C
  8
BLATTANSICHT_1_GEOMETRIEAN
  6
VOLLINIE
 62
    18
 10
-3.724361154907097
 20
-78.34812432964762
 30
0.0
 11
-3.375827202462429
 21
-78.2253057035108
 31
0.0
  0
LINE
  5
39D
  8
BLATTANSICHT_1_GEOMETRIEAN
  6
VOLLINIE
 62
    18
 10
-3.7390424086384
 20
-78.35277403234458
 30
0.0
 11
-3.724361154907097
 21
-78.34812432964762
 31
0.0
  0
LINE
  5
39E
  8
BLATTANSICHT_1_GEOMETRIEAN
  6
VOLLINIE
 62
    18
 10
-3.375827202462429
 20
-78.2253057035108
 30
0.0
 11
-3.247176612659387
 21
-78.17374952392147
 31
0.0
  0
LINE
  5
39F
  8
BLATTANSICHT_1_GEOMETRIEAN
  6
VOLLINIE
 62
    18
 10
-3.035515130264651
 20
-78.08126395800183
 30
0.0
 11
-2.889545061851208
 21
-78.01170877673121
 31
0.0
  0
LINE
  5
3A0
  8
BLATTANSICHT_1_GEOMETRIEAN
  6
VOLLINIE
 62
    18
 10
-3.247176612659387
 20
-78.17374952392147
 30
0.0
 11
-3.035515130264651
 21
-78.08126395800183
 31
0.0
  0
LINE
  5
3A1
  8
BLATTANSICHT_1_GEOMETRIEAN
  6
VOLLINIE
 62
    18
 10
-0.1722974514549699
 20
-75.30490246174392
 30
0.0
 11
-0.1620407492978825
 21
-75.28420446341296
 31
0.0
  0
LINE
  5
3A2
  8
BLATTANSICHT_1_GEOMETRIEAN
  6
VOLLINIE
 62
    18
 10
-0.3471247792977714
 20
-75.63047232878283
 30
0.0
 11
-0.1722974514549699
 21
-75.30490246174392
 31
0.0
  0
LINE
  5
3A3
  8
BLATTANSICHT_1_GEOMETRIEAN
  6
VOLLINIE
 62
    18
 10
-0.0178440919156245
 20
-74.96918756684077
 30
0.0
 11
-0.0000000008107855
 21
-74.92657290918638
 31
0.0
  0
LINE
  5
3A4
  8
BLATTANSICHT_1_GEOMETRIEAN
  6
VOLLINIE
 62
    18
 10
-0.1620407492978825
 20
-75.28420446341296
 30
0.0
 11
-0.0178440919156245
 21
-74.96918756684077
 31
0.0
  0
LINE
  5
3A5
  8
BLATTANSICHT_1_GEOMETRIEAN
  6
VOLLINIE
 62
    18
 10
0.1156494072423277
 20
-74.62460112396265
 30
0.0
 11
0.138303580649607
 21
-74.55910910564252
 31
0.0
  0
LINE
  5
3A6
  8
BLATTANSICHT_1_GEOMETRIEAN
  6
VOLLINIE
 62
    18
 10
-0.0000000008107855
 20
-74.92657290918638
 30
0.0
 11
0.1156494072423277
 21
-74.62460112396265
 31
0.0
  0
LINE
  5
3A7
  8
BLATTANSICHT_1_GEOMETRIEAN
  6
VOLLINIE
 62
    18
 10
0.2276766594515732
 20
-74.2724502675172
 30
0.0
 11
0.2522777608361504
 21
-74.18338658327997
 31
0.0
  0
LINE
  5
3A8
  8
BLATTANSICHT_1_GEOMETRIEAN
  6
VOLLINIE
 62
    18
 10
0.138303580649607
 20
-74.55910910564252
 30
0.0
 11
0.2276766594515732
 21
-74.2724502675172
 31
0.0
  0
LINE
  5
3A9
  8
BLATTANSICHT_1_GEOMETRIEAN
  6
VOLLINIE
 62
    18
 10
0.3178127069722656
 20
-73.91407082632368
 30
0.0
 11
0.3414344848093246
 21
-73.80101424362914
 31
0.0
  0
LINE
  5
3AA
  8
BLATTANSICHT_1_GEOMETRIEAN
  6
VOLLINIE
 62
    18
 10
0.2522777608361504
 20
-74.18338658327997
 30
0.0
 11
0.3178127069722656
 21
-73.91407082632368
 31
0.0
  0
LINE
  5
3AB
  8
BLATTANSICHT_1_GEOMETRIEAN
  6
VOLLINIE
 62
    18
 10
0.3857156329022226
 20
-73.55082225635681
 30
0.0
 11
0.4053919688751237
 21
-73.41362947069061
 31
0.0
  0
LINE
  5
3AC
  8
BLATTANSICHT_1_GEOMETRIEAN
  6
VOLLINIE
 62
    18
 10
0.3414344848093246
 20
-73.80101424362914
 30
0.0
 11
0.3857156329022226
 21
-73.55082225635681
 31
0.0
  0
LINE
  5
3AD
  8
BLATTANSICHT_1_GEOMETRIEAN
  6
VOLLINIE
 62
    18
 10
0.4311278581848768
 20
-73.18408248386451
 30
0.0
 11
0.4438763390857485
 21
-73.02289109873034
 31
0.0
  0
LINE
  5
3AE
  8
BLATTANSICHT_1_GEOMETRIEAN
  6
VOLLINIE
 62
    18
 10
0.4053919688751237
 20
-73.41362947069061
 30
0.0
 11
0.4311278581848768
 21
-73.18408248386451
 31
0.0
  0
LINE
  5
3AF
  8
BLATTANSICHT_1_GEOMETRIEAN
  6
VOLLINIE
 62
    18
 10
0.4538771186948711
 20
-72.81524267842173
 30
0.0
 11
0.4567228004146626
 21
-72.63047232708466
 31
0.0
  0
LINE
  5
3B0
  8
BLATTANSICHT_1_GEOMETRIEAN
  6
VOLLINIE
 62
    18
 10
0.4438763390857485
 20
-73.02289109873034
 30
0.0
 11
0.4538771186948711
 21
-72.81524267842173
 31
0.0
  0
LINE
  5
3B1
  8
BLATTANSICHT_1_GEOMETRIEAN
  6
VOLLINIE
 62
    18
 10
-0.001283779382394
 20
-74.92644047260195
 30
0.0
 11
-0.0013125114693556
 21
-74.92651463866777
 31
0.0
  0
LINE
  5
3B2
  8
BLATTANSICHT_1_GEOMETRIEAN
  6
VOLLINIE
 62
    18
 10
-0.5416628882586286
 20
-75.94466216484773
 30
0.0
 11
-0.3471247792977714
 21
-75.63047232878283
 31
0.0
  0
LINE
  5
3B3
  8
BLATTANSICHT_1_GEOMETRIEAN
  6
VOLLINIE
 62
    18
 10
-0.5544595325489037
 20
-75.96389373307939
 30
0.0
 11
-0.5416628882586286
 21
-75.94466216484773
 31
0.0
  0
LINE
  5
3B4
  8
BLATTANSICHT_1_GEOMETRIEAN
  6
VOLLINIE
 62
    18
 10
-0.7551738359039111
 20
-76.24628014536023
 30
0.0
 11
-0.5544595325489037
 21
-75.96389373307939
 31
0.0
  0
LINE
  5
3B5
  8
BLATTANSICHT_1_GEOMETRIEAN
  6
VOLLINIE
 62
    18
 10
-0.783157163659461
 20
-76.28304090663931
 30
0.0
 11
-0.7551738359039111
 21
-76.24628014536023
 31
0.0
  0
LINE
  5
3B6
  8
BLATTANSICHT_1_GEOMETRIEAN
  6
VOLLINIE
 62
    18
 10
-0.9868476996571094
 20
-76.53418212831014
 30
0.0
 11
-0.783157163659461
 21
-76.28304090663931
 31
0.0
  0
LINE
  5
3B7
  8
BLATTANSICHT_1_GEOMETRIEAN
  6
VOLLINIE
 62
    18
 10
-1.032238359296532
 20
-76.58654722098365
 30
0.0
 11
-0.9868476996571094
 21
-76.53418212831014
 31
0.0
  0
LINE
  5
3B8
  8
BLATTANSICHT_1_GEOMETRIEAN
  6
VOLLINIE
 62
    18
 10
-1.235805661198696
 20
-76.80727600286225
 30
0.0
 11
-1.032238359296532
 21
-76.58654722098365
 31
0.0
  0
LINE
  5
3B9
  8
BLATTANSICHT_1_GEOMETRIEAN
  6
VOLLINIE
 62
    18
 10
-1.300636515554255
 20
-76.87311301549573
 30
0.0
 11
-1.235805661198696
 21
-76.80727600286225
 31
0.0
  0
LINE
  5
3BA
  8
BLATTANSICHT_1_GEOMETRIEAN
  6
VOLLINIE
 62
    18
 10
-1.501103337706009
 20
-77.06452583040864
 30
0.0
 11
-1.300636515554255
 21
-76.87311301549573
 31
0.0
  0
LINE
  5
3BB
  8
BLATTANSICHT_1_GEOMETRIEAN
  6
VOLLINIE
 62
    18
 10
-1.58720231022937
 20
-77.14151117137031
 30
0.0
 11
-1.501103337706009
 21
-77.06452583040864
 31
0.0
  0
LINE
  5
3BC
  8
BLATTANSICHT_1_GEOMETRIEAN
  6
VOLLINIE
 62
    18
 10
-1.781734364220709
 20
-77.3049557742387
 30
0.0
 11
-1.58720231022937
 21
-77.14151117137031
 31
0.0
  0
LINE
  5
3BD
  8
BLATTANSICHT_1_GEOMETRIEAN
  6
VOLLINIE
 62
    18
 10
-1.890708624705406
 20
-77.3905923666216
 30
0.0
 11
-1.781734364220709
 21
-77.3049557742387
 31
0.0
  0
LINE
  5
3BE
  8
BLATTANSICHT_1_GEOMETRIEAN
  6
VOLLINIE
 62
    18
 10
-2.076634211135844
 20
-77.52765380122202
 30
0.0
 11
-1.890708624705406
 21
-77.3905923666216
 31
0.0
  0
LINE
  5
3BF
  8
BLATTANSICHT_1_GEOMETRIEAN
  6
VOLLINIE
 62
    18
 10
-2.20985579836608
 20
-77.61928999734624
 30
0.0
 11
-2.076634211135844
 21
-77.52765380122202
 31
0.0
  0
LINE
  5
3C0
  8
BLATTANSICHT_1_GEOMETRIEAN
  6
VOLLINIE
 62
    18
 10
-7.34744511730942
 20
-78.35232053355305
 30
0.0
 11
-7.34747367502804
 21
-78.35231240818156
 31
0.0
  0
LINE
  5
3C1
  8
BLATTANSICHT_1_GEOMETRIEAN
  6
VOLLINIE
 62
    18
 10
-2.704715858569288
 20
-77.91654549279939
 30
0.0
 11
-2.54327719969504
 21
-77.82662474845966
 31
0.0
  0
LINE
  5
3C2
  8
BLATTANSICHT_1_GEOMETRIEAN
  6
VOLLINIE
 62
    18
 10
-2.889545061851208
 20
-78.01170877673121
 30
0.0
 11
-2.704715858569288
 21
-77.91654549279939
 31
0.0
  0
LINE
  5
3C3
  8
BLATTANSICHT_1_GEOMETRIEAN
  6
VOLLINIE
 62
    18
 10
-2.384684222321213
 20
-77.73177514146236
 30
0.0
 11
-2.20985579836608
 21
-77.61928999734624
 31
0.0
  0
LINE
  5
3C4
  8
BLATTANSICHT_1_GEOMETRIEAN
  6
VOLLINIE
 62
    18
 10
-2.54327719969504
 20
-77.82662474845966
 30
0.0
 11
-2.384684222321213
 21
-77.73177514146236
 31
0.0
  0
LINE
  5
3C5
  8
BLATTANSICHT_1_GEOMETRIEAN
  6
VOLLINIE
 62
    18
 10
-7.839377788923375
 20
-78.17374952370925
 30
0.0
 11
-7.710727196708258
 21
-78.2253057035108
 31
0.0
  0
LINE
  5
3C6
  8
BLATTANSICHT_1_GEOMETRIEAN
  6
VOLLINIE
 62
    18
 10
-8.051039268906047
 20
-78.0812639580018
 30
0.0
 11
-7.839377788923375
 21
-78.17374952370925
 31
0.0
  0
LINE
  5
3C7
  8
BLATTANSICHT_1_GEOMETRIEAN
  6
VOLLINIE
 62
    18
 10
-8.197009339699981
 20
-78.01170877649412
 30
0.0
 11
-8.051039268906047
 21
-78.0812639580018
 31
0.0
  0
LINE
  5
3C8
  8
BLATTANSICHT_1_GEOMETRIEAN
  6
VOLLINIE
 62
    18
 10
-8.381838540601398
 20
-77.91654549279936
 30
0.0
 11
-8.197009339699981
 21
-78.01170877649412
 31
0.0
  0
LINE
  5
3C9
  8
BLATTANSICHT_1_GEOMETRIEAN
  6
VOLLINIE
 62
    18
 10
-8.543277201823619
 20
-77.82662474820087
 30
0.0
 11
-8.381838540601398
 21
-77.91654549279936
 31
0.0
  0
LINE
  5
3CA
  8
BLATTANSICHT_1_GEOMETRIEAN
  6
VOLLINIE
 62
    18
 10
-8.701870176849473
 20
-77.73177514146235
 30
0.0
 11
-8.543277201823619
 21
-77.82662474820087
 31
0.0
  0
LINE
  5
3CB
  8
BLATTANSICHT_1_GEOMETRIEAN
  6
VOLLINIE
 62
    18
 10
-8.876698603119314
 20
-77.61928999706895
 30
0.0
 11
-8.701870176849473
 21
-77.73177514146235
 31
0.0
  0
LINE
  5
3CC
  8
BLATTANSICHT_1_GEOMETRIEAN
  6
VOLLINIE
 62
    18
 10
-9.009920188034842
 20
-77.52765380122199
 30
0.0
 11
-8.876698603119314
 21
-77.61928999706895
 31
0.0
  0
LINE
  5
3CD
  8
BLATTANSICHT_1_GEOMETRIEAN
  6
VOLLINIE
 62
    18
 10
-9.195845772720826
 20
-77.39059236941789
 30
0.0
 11
-9.009920188034842
 21
-77.52765380122199
 31
0.0
  0
LINE
  5
3CE
  8
BLATTANSICHT_1_GEOMETRIEAN
  6
VOLLINIE
 62
    18
 10
-11.06871030725505
 20
-74.96918756684074
 30
0.0
 11
-10.92451365188942
 21
-75.28420446317594
 31
0.0
  0
LINE
  5
3CF
  8
BLATTANSICHT_1_GEOMETRIEAN
  6
VOLLINIE
 62
    18
 10
-11.08655440034753
 20
-74.92657290897415
 30
0.0
 11
-11.06871030725505
 21
-74.96918756684074
 31
0.0
  0
LINE
  5
3D0
  8
BLATTANSICHT_1_GEOMETRIEAN
  6
VOLLINIE
 62
    18
 10
-10.9142569477157
 20
-75.3049024617439
 30
0.0
 11
-10.73942962192208
 21
-75.63047232852398
 31
0.0
  0
LINE
  5
3D1
  8
BLATTANSICHT_1_GEOMETRIEAN
  6
VOLLINIE
 62
    18
 10
-10.92451365188942
 20
-75.28420446317594
 30
0.0
 11
-10.9142569477157
 21
-75.3049024617439
 31
0.0
  0
LINE
  5
3D2
  8
BLATTANSICHT_1_GEOMETRIEAN
  6
VOLLINIE
 62
    18
 10
-9.585451061464678
 20
-77.06452583040861
 30
0.0
 11
-9.499352083558824
 21
-77.14151117775664
 31
0.0
  0
LINE
  5
3D3
  8
BLATTANSICHT_1_GEOMETRIEAN
  6
VOLLINIE
 62
    18
 10
-9.785917875066282
 20
-76.8731130259456
 30
0.0
 11
-9.585451061464678
 21
-77.06452583040861
 31
0.0
  0
LINE
  5
3D4
  8
BLATTANSICHT_1_GEOMETRIEAN
  6
VOLLINIE
 62
    18
 10
-9.304820034949978
 20
-77.30495577423868
 30
0.0
 11
-9.195845772720826
 21
-77.39059236941789
 31
0.0
  0
LINE
  5
3D5
  8
BLATTANSICHT_1_GEOMETRIEAN
  6
VOLLINIE
 62
    18
 10
-9.499352083558824
 20
-77.14151117775664
 30
0.0
 11
-9.304820034949978
 21
-77.30495577423868
 31
0.0
  0
LINE
  5
3D6
  8
BLATTANSICHT_1_GEOMETRIEAN
  6
VOLLINIE
 62
    18
 10
-10.33138056326677
 20
-76.2462801453602
 30
0.0
 11
-10.30339723454745
 21
-76.28304091037108
 31
0.0
  0
LINE
  5
3D7
  8
BLATTANSICHT_1_GEOMETRIEAN
  6
VOLLINIE
 62
    18
 10
-10.53209486870679
 20
-75.96389373280209
 30
0.0
 11
-10.33138056326677
 21
-76.2462801453602
 31
0.0
  0
LINE
  5
3D8
  8
BLATTANSICHT_1_GEOMETRIEAN
  6
VOLLINIE
 62
    18
 10
-11.53043074020569
 20
-73.02289109797458
 30
0.0
 11
-11.54327719958533
 21
-72.63047232708466
 31
0.0
  0
LINE
  5
3D9
  8
BLATTANSICHT_1_GEOMETRIEAN
  6
VOLLINIE
 62
    18
 10
-11.4919463700026
 20
-73.4136294702571
 30
0.0
 11
-11.53043074020569
 21
-73.02289109797458
 31
0.0
  0
LINE
  5
3DA
  8
BLATTANSICHT_1_GEOMETRIEAN
  6
VOLLINIE
 62
    18
 10
-11.42798888590259
 20
-73.80101424351429
 30
0.0
 11
-11.4919463700026
 21
-73.4136294702571
 31
0.0
  0
LINE
  5
3DB
  8
BLATTANSICHT_1_GEOMETRIEAN
  6
VOLLINIE
 62
    18
 10
-11.33883216194658
 20
-74.1833865831306
 30
0.0
 11
-11.42798888590259
 21
-73.80101424351429
 31
0.0
  0
LINE
  5
3DC
  8
BLATTANSICHT_1_GEOMETRIEAN
  6
VOLLINIE
 62
    18
 10
-11.22485798178177
 20
-74.55910910546055
 30
0.0
 11
-11.33883216194658
 21
-74.1833865831306
 31
0.0
  0
LINE
  5
3DD
  8
BLATTANSICHT_1_GEOMETRIEAN
  6
VOLLINIE
 62
    18
 10
-11.08655440034753
 20
-74.92657290897415
 30
0.0
 11
-11.22485798178177
 21
-74.55910910546055
 31
0.0
  0
LINE
  5
3DE
  8
BLATTANSICHT_1_GEOMETRIEAN
  6
VOLLINIE
 62
    18
 10
-10.53209486870679
 20
-75.96389373280209
 30
0.0
 11
-10.73942962192208
 21
-75.63047232852398
 31
0.0
  0
LINE
  5
3DF
  8
BLATTANSICHT_1_GEOMETRIEAN
  6
VOLLINIE
 62
    18
 10
-10.92451365188942
 20
-75.28420446317594
 30
0.0
 11
-11.08655440034753
 21
-74.92657290897415
 31
0.0
  0
LINE
  5
3E0
  8
BLATTANSICHT_1_GEOMETRIEAN
  6
VOLLINIE
 62
    18
 10
-10.73942962192208
 20
-75.63047232852398
 30
0.0
 11
-10.92451365188942
 21
-75.28420446317594
 31
0.0
  0
LINE
  5
3E1
  8
BLATTANSICHT_1_GEOMETRIEAN
  6
VOLLINIE
 62
    18
 10
-10.05431603535114
 20
-76.58654722830737
 30
0.0
 11
-10.30339723454745
 21
-76.28304091037108
 31
0.0
  0
LINE
  5
3E2
  8
BLATTANSICHT_1_GEOMETRIEAN
  6
VOLLINIE
 62
    18
 10
-9.785917875066282
 20
-76.8731130259456
 30
0.0
 11
-10.05431603535114
 21
-76.58654722830737
 31
0.0
  0
LINE
  5
3E3
  8
BLATTANSICHT_1_GEOMETRIEAN
  6
VOLLINIE
 62
    18
 10
-10.30339723454745
 20
-76.28304091037108
 30
0.0
 11
-10.53209486870679
 21
-75.96389373280209
 31
0.0
  0
LINE
  5
3E4
  8
BLATTANSICHT_1_GEOMETRIEAN
  6
VOLLINIE
 62
    18
 10
-6.841914880877705
 20
-78.48824836968622
 30
0.0
 11
-7.347511992960899
 21
-78.35277403217782
 31
0.0
  0
LINE
  5
3E5
  8
BLATTANSICHT_1_GEOMETRIEAN
  6
VOLLINIE
 62
    18
 10
-6.326434351963218
 20
-78.5791414947301
 30
0.0
 11
-6.841914880877705
 21
-78.48824836968622
 31
0.0
  0
LINE
  5
3E6
  8
BLATTANSICHT_1_GEOMETRIEAN
  6
VOLLINIE
 62
    18
 10
-5.804993524276297
 20
-78.62476165574894
 30
0.0
 11
-6.326434351963218
 21
-78.5791414947301
 31
0.0
  0
LINE
  5
3E7
  8
BLATTANSICHT_1_GEOMETRIEAN
  6
VOLLINIE
 62
    18
 10
-5.281560877348144
 20
-78.62476165577313
 30
0.0
 11
-5.804993524276297
 21
-78.62476165574894
 31
0.0
  0
LINE
  5
3E8
  8
BLATTANSICHT_1_GEOMETRIEAN
  6
VOLLINIE
 62
    18
 10
-4.760120049657004
 20
-78.57914149480247
 30
0.0
 11
-5.281560877348144
 21
-78.62476165577313
 31
0.0
  0
LINE
  5
3E9
  8
BLATTANSICHT_1_GEOMETRIEAN
  6
VOLLINIE
 62
    18
 10
-4.244639520734113
 20
-78.48824836980624
 30
0.0
 11
-4.760120049657004
 21
-78.57914149480247
 31
0.0
  0
LINE
  5
3EA
  8
BLATTANSICHT_1_GEOMETRIEAN
  6
VOLLINIE
 62
    18
 10
-3.7390424086384
 20
-78.35277403234458
 30
0.0
 11
-4.244639520734113
 21
-78.48824836980624
 31
0.0
  0
LINE
  5
3EB
  8
BLATTANSICHT_1_GEOMETRIEAN
  6
VOLLINIE
 62
    18
 10
-3.247176612659387
 20
-78.17374952392147
 30
0.0
 11
-3.7390424086384
 21
-78.35277403234458
 31
0.0
  0
LINE
  5
3EC
  8
BLATTANSICHT_1_GEOMETRIEAN
  6
VOLLINIE
 62
    18
 10
-7.347511992960899
 20
-78.35277403217782
 30
0.0
 11
-7.839377788923375
 21
-78.17374952370925
 31
0.0
  0
LINE
  5
3ED
  8
BLATTANSICHT_1_GEOMETRIEAN
  6
VOLLINIE
 62
    18
 10
-2.889545061851208
 20
-78.01170877673121
 30
0.0
 11
-3.247176612659387
 21
-78.17374952392147
 31
0.0
  0
LINE
  5
3EE
  8
BLATTANSICHT_1_GEOMETRIEAN
  6
VOLLINIE
 62
    18
 10
-2.54327719969504
 20
-77.82662474845966
 30
0.0
 11
-2.889545061851208
 21
-78.01170877673121
 31
0.0
  0
LINE
  5
3EF
  8
BLATTANSICHT_1_GEOMETRIEAN
  6
VOLLINIE
 62
    18
 10
-2.20985579836608
 20
-77.61928999734624
 30
0.0
 11
-2.54327719969504
 21
-77.82662474845966
 31
0.0
  0
LINE
  5
3F0
  8
BLATTANSICHT_1_GEOMETRIEAN
  6
VOLLINIE
 62
    18
 10
-0.1620407492978825
 20
-75.28420446341296
 30
0.0
 11
-0.3471247792977714
 21
-75.63047232878283
 31
0.0
  0
LINE
  5
3F1
  8
BLATTANSICHT_1_GEOMETRIEAN
  6
VOLLINIE
 62
    18
 10
-0.0000000008107855
 20
-74.92657290918638
 30
0.0
 11
-0.1620407492978825
 21
-75.28420446341296
 31
0.0
  0
LINE
  5
3F2
  8
BLATTANSICHT_1_GEOMETRIEAN
  6
VOLLINIE
 62
    18
 10
-0.3471247792977714
 20
-75.63047232878283
 30
0.0
 11
-0.5544595325489037
 21
-75.96389373307939
 31
0.0
  0
LINE
  5
3F3
  8
BLATTANSICHT_1_GEOMETRIEAN
  6
VOLLINIE
 62
    18
 10
0.138303580649607
 20
-74.55910910564252
 30
0.0
 11
-0.0000000008107855
 21
-74.92657290918638
 31
0.0
  0
LINE
  5
3F4
  8
BLATTANSICHT_1_GEOMETRIEAN
  6
VOLLINIE
 62
    18
 10
0.2522777608361504
 20
-74.18338658327997
 30
0.0
 11
0.138303580649607
 21
-74.55910910564252
 31
0.0
  0
LINE
  5
3F5
  8
BLATTANSICHT_1_GEOMETRIEAN
  6
VOLLINIE
 62
    18
 10
0.3414344848093246
 20
-73.80101424362914
 30
0.0
 11
0.2522777608361504
 21
-74.18338658327997
 31
0.0
  0
LINE
  5
3F6
  8
BLATTANSICHT_1_GEOMETRIEAN
  6
VOLLINIE
 62
    18
 10
0.4053919688751237
 20
-73.41362947069061
 30
0.0
 11
0.3414344848093246
 21
-73.80101424362914
 31
0.0
  0
LINE
  5
3F7
  8
BLATTANSICHT_1_GEOMETRIEAN
  6
VOLLINIE
 62
    18
 10
0.4438763390857485
 20
-73.02289109873034
 30
0.0
 11
0.4053919688751237
 21
-73.41362947069061
 31
0.0
  0
LINE
  5
3F8
  8
BLATTANSICHT_1_GEOMETRIEAN
  6
VOLLINIE
 62
    18
 10
0.4567228004146626
 20
-72.63047232708466
 30
0.0
 11
0.4438763390857485
 21
-73.02289109873034
 31
0.0
  0
LINE
  5
3F9
  8
BLATTANSICHT_1_GEOMETRIEAN
  6
VOLLINIE
 62
    18
 10
-0.5544595325489037
 20
-75.96389373307939
 30
0.0
 11
-0.783157163659461
 21
-76.28304090663931
 31
0.0
  0
LINE
  5
3FA
  8
BLATTANSICHT_1_GEOMETRIEAN
  6
VOLLINIE
 62
    18
 10
-0.783157163659461
 20
-76.28304090663931
 30
0.0
 11
-1.032238359296532
 21
-76.58654722098365
 31
0.0
  0
LINE
  5
3FB
  8
BLATTANSICHT_1_GEOMETRIEAN
  6
VOLLINIE
 62
    18
 10
-1.032238359296532
 20
-76.58654722098365
 30
0.0
 11
-1.300636515554255
 21
-76.87311301549573
 31
0.0
  0
LINE
  5
3FC
  8
BLATTANSICHT_1_GEOMETRIEAN
  6
VOLLINIE
 62
    18
 10
-1.300636515554255
 20
-76.87311301549573
 30
0.0
 11
-1.58720231022937
 21
-77.14151117137031
 31
0.0
  0
LINE
  5
3FD
  8
BLATTANSICHT_1_GEOMETRIEAN
  6
VOLLINIE
 62
    18
 10
-1.58720231022937
 20
-77.14151117137031
 30
0.0
 11
-1.890708624705406
 21
-77.3905923666216
 31
0.0
  0
LINE
  5
3FE
  8
BLATTANSICHT_1_GEOMETRIEAN
  6
VOLLINIE
 62
    18
 10
-1.890708624705406
 20
-77.3905923666216
 30
0.0
 11
-2.20985579836608
 21
-77.61928999734624
 31
0.0
  0
LINE
  5
3FF
  8
BLATTANSICHT_1_GEOMETRIEAN
  6
VOLLINIE
 62
    18
 10
-7.839377788923375
 20
-78.17374952370925
 30
0.0
 11
-8.197009339699981
 21
-78.01170877649412
 31
0.0
  0
LINE
  5
400
  8
BLATTANSICHT_1_GEOMETRIEAN
  6
VOLLINIE
 62
    18
 10
-8.197009339699981
 20
-78.01170877649412
 30
0.0
 11
-8.543277201823619
 21
-77.82662474820087
 31
0.0
  0
LINE
  5
401
  8
BLATTANSICHT_1_GEOMETRIEAN
  6
VOLLINIE
 62
    18
 10
-8.543277201823619
 20
-77.82662474820087
 30
0.0
 11
-8.876698603119314
 21
-77.61928999706895
 31
0.0
  0
LINE
  5
402
  8
BLATTANSICHT_1_GEOMETRIEAN
  6
VOLLINIE
 62
    18
 10
-8.876698603119314
 20
-77.61928999706895
 30
0.0
 11
-9.195845772720826
 21
-77.39059236941789
 31
0.0
  0
LINE
  5
403
  8
BLATTANSICHT_1_GEOMETRIEAN
  6
VOLLINIE
 62
    18
 10
-9.499352083558824
 20
-77.14151117775664
 30
0.0
 11
-9.785917875066282
 21
-76.8731130259456
 31
0.0
  0
LINE
  5
404
  8
BLATTANSICHT_1_GEOMETRIEAN
  6
VOLLINIE
 62
    18
 10
-9.195845772720826
 20
-77.39059236941789
 30
0.0
 11
-9.499352083558824
 21
-77.14151117775664
 31
0.0
  0
LINE
  5
405
  8
BLATTANSICHT_1_GEOMETRIEAN
  6
VOLLINIE
 62
    18
 10
-23.31528742959196
 20
-70.13047232708465
 30
0.0
 11
-20.55305952458533
 21
-70.13047232708465
 31
0.0
  0
LINE
  5
406
  8
BLATTANSICHT_1_GEOMETRIEAN
  6
VOLLINIE
 62
    18
 10
-20.55305952458533
 20
-50.13047232708467
 30
0.0
 11
-23.31528742959196
 21
-50.13047232708467
 31
0.0
  0
LINE
  5
407
  8
BLATTANSICHT_1_GEOMETRIEAN
  6
VOLLINIE
 62
    18
 10
-20.55305952458533
 20
-70.13047232708465
 30
0.0
 11
-19.54327719958533
 21
-70.13047232708465
 31
0.0
  0
LINE
  5
408
  8
BLATTANSICHT_1_GEOMETRIEAN
  6
VOLLINIE
 62
    18
 10
-20.55305952458533
 20
-50.13047232708467
 30
0.0
 11
-20.55305952458533
 21
-70.13047232708465
 31
0.0
  0
LINE
  5
409
  8
BLATTANSICHT_1_GEOMETRIEAN
  6
VOLLINIE
 62
    18
 10
-19.54327719958533
 20
-70.13047232708465
 30
0.0
 11
-19.54327719958533
 21
-50.13047232708467
 31
0.0
  0
LINE
  5
40A
  8
BLATTANSICHT_1_GEOMETRIEAN
  6
VOLLINIE
 62
    18
 10
-19.54327719958533
 20
-50.13047232708467
 30
0.0
 11
-20.55305952458533
 21
-50.13047232708467
 31
0.0
  0
LINE
  5
40B
  8
BLATTANSICHT_1_GEOMETRIEAN
  6
VOLLINIE
 62
    18
 10
-23.45809176553709
 20
-50.13047232625085
 30
0.0
 11
-23.49524040061476
 21
-50.13047232625085
 31
0.0
  0
LINE
  5
40C
  8
BLATTANSICHT_1_GEOMETRIEAN
  6
VOLLINIE
 62
    18
 10
-23.41060252385693
 20
-50.13047232625085
 30
0.0
 11
-23.45809176553709
 21
-50.13047232625085
 31
0.0
  0
LINE
  5
40D
  8
BLATTANSICHT_1_GEOMETRIEAN
  6
VOLLINIE
 62
    18
 10
-23.35297603179593
 20
-50.13047232625085
 30
0.0
 11
-23.41060252385693
 21
-50.13047232625085
 31
0.0
  0
LINE
  5
40E
  8
BLATTANSICHT_1_GEOMETRIEAN
  6
VOLLINIE
 62
    18
 10
-23.26439129006226
 20
-50.13047232625085
 30
0.0
 11
-23.35297603179593
 21
-50.13047232625085
 31
0.0
  0
LINE
  5
40F
  8
BLATTANSICHT_1_GEOMETRIEAN
  6
VOLLINIE
 62
    18
 10
-23.1600876975879
 20
-50.13047232625085
 30
0.0
 11
-23.26439129006226
 21
-50.13047232625085
 31
0.0
  0
LINE
  5
410
  8
BLATTANSICHT_1_GEOMETRIEAN
  6
VOLLINIE
 62
    18
 10
-23.04080341213291
 20
-50.13047232625085
 30
0.0
 11
-23.1600876975879
 21
-50.13047232625085
 31
0.0
  0
LINE
  5
411
  8
BLATTANSICHT_1_GEOMETRIEAN
  6
VOLLINIE
 62
    18
 10
-22.90738260999905
 20
-50.13047232625085
 30
0.0
 11
-23.04080341213291
 21
-50.13047232625085
 31
0.0
  0
LINE
  5
412
  8
BLATTANSICHT_1_GEOMETRIEAN
  6
VOLLINIE
 62
    18
 10
-22.76076951178424
 20
-50.13047232625085
 30
0.0
 11
-22.90738260999905
 21
-50.13047232625085
 31
0.0
  0
LINE
  5
413
  8
BLATTANSICHT_1_GEOMETRIEAN
  6
VOLLINIE
 62
    18
 10
-22.60200170012201
 20
-50.13047232625085
 30
0.0
 11
-22.76076951178424
 21
-50.13047232625085
 31
0.0
  0
LINE
  5
414
  8
BLATTANSICHT_1_GEOMETRIEAN
  6
VOLLINIE
 62
    18
 10
-22.43220277669708
 20
-50.13047232625085
 30
0.0
 11
-22.60200170012201
 21
-50.13047232625085
 31
0.0
  0
LINE
  5
415
  8
BLATTANSICHT_1_GEOMETRIEAN
  6
VOLLINIE
 62
    18
 10
-22.29327719713755
 20
-50.13047232625084
 30
0.0
 11
-22.43220277669708
 21
-50.13047232625085
 31
0.0
  0
LINE
  5
416
  8
BLATTANSICHT_1_GEOMETRIEAN
  6
VOLLINIE
 62
    18
 10
-22.14899892592784
 20
-50.13047232625084
 30
0.0
 11
-22.29327719713755
 21
-50.13047232625084
 31
0.0
  0
LINE
  5
417
  8
BLATTANSICHT_1_GEOMETRIEAN
  6
VOLLINIE
 62
    18
 10
-21.99998578474726
 20
-50.13047232625084
 30
0.0
 11
-22.14899892592784
 21
-50.13047232625084
 31
0.0
  0
LINE
  5
418
  8
BLATTANSICHT_1_GEOMETRIEAN
  6
VOLLINIE
 62
    18
 10
-21.84687586712123
 20
-50.13047232625084
 30
0.0
 11
-21.99998578474726
 21
-50.13047232625084
 31
0.0
  0
LINE
  5
419
  8
BLATTANSICHT_1_GEOMETRIEAN
  6
VOLLINIE
 62
    18
 10
-21.69032481662667
 20
-50.13047232625084
 30
0.0
 11
-21.84687586712123
 21
-50.13047232625084
 31
0.0
  0
LINE
  5
41A
  8
BLATTANSICHT_1_GEOMETRIEAN
  6
VOLLINIE
 62
    18
 10
-21.53100300889663
 20
-50.13047232625084
 30
0.0
 11
-21.69032481662667
 21
-50.13047232625084
 31
0.0
  0
LINE
  5
41B
  8
BLATTANSICHT_1_GEOMETRIEAN
  6
VOLLINIE
 62
    18
 10
-21.36959268269589
 20
-50.13047232625084
 30
0.0
 11
-21.53100300889663
 21
-50.13047232625084
 31
0.0
  0
LINE
  5
41C
  8
BLATTANSICHT_1_GEOMETRIEAN
  6
VOLLINIE
 62
    18
 10
-21.20678502346936
 20
-50.13047232625083
 30
0.0
 11
-21.36959268269589
 21
-50.13047232625084
 31
0.0
  0
LINE
  5
41D
  8
BLATTANSICHT_1_GEOMETRIEAN
  6
VOLLINIE
 62
    18
 10
-23.49524040061476
 20
-50.13047232625085
 30
0.0
 11
-23.52188935297247
 21
-50.13047232625085
 31
0.0
  0
LINE
  5
41E
  8
BLATTANSICHT_1_GEOMETRIEAN
  6
VOLLINIE
 62
    18
 10
-23.52188935297247
 20
-50.13047232625085
 30
0.0
 11
-23.53792450762719
 21
-50.13047232625085
 31
0.0
  0
LINE
  5
41F
  8
BLATTANSICHT_1_GEOMETRIEAN
  6
VOLLINIE
 62
    18
 10
-24.94674015022926
 20
-50.13047232625085
 30
0.0
 11
-25.04020009782514
 21
-50.13047232625085
 31
0.0
  0
LINE
  5
420
  8
BLATTANSICHT_1_GEOMETRIEAN
  6
VOLLINIE
 62
    18
 10
-25.12613364323722
 20
-50.13047232625085
 30
0.0
 11
-25.20437896937765
 21
-50.13047232625085
 31
0.0
  0
LINE
  5
421
  8
BLATTANSICHT_1_GEOMETRIEAN
  6
VOLLINIE
 62
    18
 10
-25.04020009782514
 20
-50.13047232625085
 30
0.0
 11
-25.12613364323722
 21
-50.13047232625085
 31
0.0
  0
LINE
  5
422
  8
BLATTANSICHT_1_GEOMETRIEAN
  6
VOLLINIE
 62
    18
 10
-24.73795885104508
 20
-50.13047232625085
 30
0.0
 11
-24.94674015022926
 21
-50.13047232625085
 31
0.0
  0
LINE
  5
423
  8
BLATTANSICHT_1_GEOMETRIEAN
  6
VOLLINIE
 62
    18
 10
-24.50136158513586
 20
-50.13047232625085
 30
0.0
 11
-24.73795885104508
 21
-50.13047232625085
 31
0.0
  0
LINE
  5
424
  8
BLATTANSICHT_1_GEOMETRIEAN
  6
VOLLINIE
 62
    18
 10
-24.23872961061705
 20
-50.13047232625085
 30
0.0
 11
-24.50136158513586
 21
-50.13047232625085
 31
0.0
  0
LINE
  5
425
  8
BLATTANSICHT_1_GEOMETRIEAN
  6
VOLLINIE
 62
    18
 10
-24.0982612443935
 20
-50.13047232625085
 30
0.0
 11
-24.23872961061705
 21
-50.13047232625085
 31
0.0
  0
LINE
  5
426
  8
BLATTANSICHT_1_GEOMETRIEAN
  6
VOLLINIE
 62
    18
 10
-23.95204019331993
 20
-50.13047232625085
 30
0.0
 11
-24.0982612443935
 21
-50.13047232625085
 31
0.0
  0
LINE
  5
427
  8
BLATTANSICHT_1_GEOMETRIEAN
  6
VOLLINIE
 62
    18
 10
-23.80034179880986
 20
-50.13047232625085
 30
0.0
 11
-23.95204019331993
 21
-50.13047232625085
 31
0.0
  0
LINE
  5
428
  8
BLATTANSICHT_1_GEOMETRIEAN
  6
VOLLINIE
 62
    18
 10
-23.64345171483797
 20
-50.13047232625086
 30
0.0
 11
-23.80034179880986
 21
-50.13047232625085
 31
0.0
  0
LINE
  5
429
  8
BLATTANSICHT_1_GEOMETRIEAN
  6
VOLLINIE
 62
    18
 10
-23.48166537458061
 20
-50.13047232625086
 30
0.0
 11
-23.64345171483797
 21
-50.13047232625086
 31
0.0
  0
LINE
  5
42A
  8
BLATTANSICHT_1_GEOMETRIEAN
  6
VOLLINIE
 62
    18
 10
-23.31528742959196
 20
-50.13047232708467
 30
0.0
 11
-23.48166537458061
 21
-50.13047232625086
 31
0.0
  0
LINE
  5
42B
  8
BLATTANSICHT_1_GEOMETRIEAN
  6
VOLLINIE
 62
    18
 10
-23.31528742959196
 20
-70.13047232708465
 30
0.0
 11
-23.31528742959196
 21
-50.13047232708467
 31
0.0
  0
LINE
  5
42C
  8
BLATTANSICHT_1_GEOMETRIEAN
  6
VOLLINIE
 62
    18
 10
-23.48166537451311
 20
-70.13047232708465
 30
0.0
 11
-23.31528742959196
 21
-70.13047232708465
 31
0.0
  0
LINE
  5
42D
  8
BLATTANSICHT_1_GEOMETRIEAN
  6
VOLLINIE
 62
    18
 10
-23.6434517147721
 20
-70.13047232708465
 30
0.0
 11
-23.48166537451311
 21
-70.13047232708465
 31
0.0
  0
LINE
  5
42E
  8
BLATTANSICHT_1_GEOMETRIEAN
  6
VOLLINIE
 62
    18
 10
-23.80034179874626
 20
-70.13047232708465
 30
0.0
 11
-23.6434517147721
 21
-70.13047232708465
 31
0.0
  0
LINE
  5
42F
  8
BLATTANSICHT_1_GEOMETRIEAN
  6
VOLLINIE
 62
    18
 10
-23.95204019326033
 20
-70.13047232708465
 30
0.0
 11
-23.80034179874626
 21
-70.13047232708465
 31
0.0
  0
LINE
  5
430
  8
BLATTANSICHT_1_GEOMETRIEAN
  6
VOLLINIE
 62
    18
 10
-24.09826124433848
 20
-70.13047232708465
 30
0.0
 11
-23.95204019326033
 21
-70.13047232708465
 31
0.0
  0
LINE
  5
431
  8
BLATTANSICHT_1_GEOMETRIEAN
  6
VOLLINIE
 62
    18
 10
-24.23872961056721
 20
-70.13047232708465
 30
0.0
 11
-24.09826124433848
 21
-70.13047232708465
 31
0.0
  0
LINE
  5
432
  8
BLATTANSICHT_1_GEOMETRIEAN
  6
VOLLINIE
 62
    18
 10
-24.50136158510097
 20
-70.13047232708465
 30
0.0
 11
-24.23872961056721
 21
-70.13047232708465
 31
0.0
  0
LINE
  5
433
  8
BLATTANSICHT_1_GEOMETRIEAN
  6
VOLLINIE
 62
    18
 10
-24.73795885102682
 20
-70.13047232708465
 30
0.0
 11
-24.50136158510097
 21
-70.13047232708465
 31
0.0
  0
LINE
  5
434
  8
BLATTANSICHT_1_GEOMETRIEAN
  6
VOLLINIE
 62
    18
 10
-24.94674015022927
 20
-70.13047232708465
 30
0.0
 11
-24.73795885102682
 21
-70.13047232708465
 31
0.0
  0
LINE
  5
435
  8
BLATTANSICHT_1_GEOMETRIEAN
  6
VOLLINIE
 62
    18
 10
-25.04020009783589
 20
-70.13047232708465
 30
0.0
 11
-24.94674015022927
 21
-70.13047232708465
 31
0.0
  0
LINE
  5
436
  8
BLATTANSICHT_1_GEOMETRIEAN
  6
VOLLINIE
 62
    18
 10
-25.12613364325888
 20
-70.13047232708465
 30
0.0
 11
-25.04020009783589
 21
-70.13047232708465
 31
0.0
  0
LINE
  5
437
  8
BLATTANSICHT_1_GEOMETRIEAN
  6
VOLLINIE
 62
    18
 10
-25.20437896941038
 20
-70.13047232708465
 30
0.0
 11
-25.12613364325888
 21
-70.13047232708465
 31
0.0
  0
LINE
  5
438
  8
BLATTANSICHT_1_GEOMETRIEAN
  6
VOLLINIE
 62
    18
 10
-25.20437896937765
 20
-50.13047232625085
 30
0.0
 11
-25.27478873536269
 21
-50.13047232625085
 31
0.0
  0
LINE
  5
439
  8
BLATTANSICHT_1_GEOMETRIEAN
  6
VOLLINIE
 62
    18
 10
-25.27478873536269
 20
-50.13047232625085
 30
0.0
 11
-25.33723035749577
 21
-50.13047232625084
 31
0.0
  0
LINE
  5
43A
  8
BLATTANSICHT_1_GEOMETRIEAN
  6
VOLLINIE
 62
    18
 10
-25.33723035749577
 20
-50.13047232625084
 30
0.0
 11
-25.39158625513855
 21
-50.13047232625084
 31
0.0
  0
LINE
  5
43B
  8
BLATTANSICHT_1_GEOMETRIEAN
  6
VOLLINIE
 62
    18
 10
-25.27478873540715
 20
-70.13047232708465
 30
0.0
 11
-25.20437896941038
 21
-70.13047232708465
 31
0.0
  0
LINE
  5
43C
  8
BLATTANSICHT_1_GEOMETRIEAN
  6
VOLLINIE
 62
    18
 10
-25.33723035755194
 20
-70.13047232708465
 30
0.0
 11
-25.27478873540715
 21
-70.13047232708465
 31
0.0
  0
LINE
  5
43D
  8
BLATTANSICHT_1_GEOMETRIEAN
  6
VOLLINIE
 62
    18
 10
-25.39158625520638
 20
-70.13047232708465
 30
0.0
 11
-25.33723035755194
 21
-70.13047232708465
 31
0.0
  0
LINE
  5
43E
  8
BLATTANSICHT_1_GEOMETRIEAN
  6
VOLLINIE
 62
    18
 10
-25.39158625513855
 20
-50.13047232625084
 30
0.0
 11
-25.43775407356635
 21
-50.13047232625084
 31
0.0
  0
LINE
  5
43F
  8
BLATTANSICHT_1_GEOMETRIEAN
  6
VOLLINIE
 62
    18
 10
-25.43775407356635
 20
-50.13047232625084
 30
0.0
 11
-25.4756468763756
 21
-50.13047232625084
 31
0.0
  0
LINE
  5
440
  8
BLATTANSICHT_1_GEOMETRIEAN
  6
VOLLINIE
 62
    18
 10
-25.4756468763756
 20
-50.13047232625084
 30
0.0
 11
-25.50519330955894
 21
-50.13047232625084
 31
0.0
  0
LINE
  5
441
  8
BLATTANSICHT_1_GEOMETRIEAN
  6
VOLLINIE
 62
    18
 10
-25.43775407364611
 20
-70.13047232708465
 30
0.0
 11
-25.39158625520638
 21
-70.13047232708465
 31
0.0
  0
LINE
  5
442
  8
BLATTANSICHT_1_GEOMETRIEAN
  6
VOLLINIE
 62
    18
 10
-25.47564687646705
 20
-70.13047232708465
 30
0.0
 11
-25.43775407364611
 21
-70.13047232708465
 31
0.0
  0
LINE
  5
443
  8
BLATTANSICHT_1_GEOMETRIEAN
  6
VOLLINIE
 62
    18
 10
-25.50519330966188
 20
-70.13047232708465
 30
0.0
 11
-25.47564687646705
 21
-70.13047232708465
 31
0.0
  0
LINE
  5
444
  8
BLATTANSICHT_1_GEOMETRIEAN
  6
VOLLINIE
 62
    18
 10
-25.50519330955894
 20
-50.13047232625084
 30
0.0
 11
-25.52633773582168
 21
-50.13047232625084
 31
0.0
  0
LINE
  5
445
  8
BLATTANSICHT_1_GEOMETRIEAN
  6
VOLLINIE
 62
    18
 10
-25.52633773582168
 20
-50.13047232625084
 30
0.0
 11
-25.53904033899374
 21
-50.13047232625083
 31
0.0
  0
LINE
  5
446
  8
BLATTANSICHT_1_GEOMETRIEAN
  6
VOLLINIE
 62
    18
 10
-25.53904033899374
 20
-50.13047232625083
 30
0.0
 11
-25.54327719958532
 21
-50.13047232708467
 31
0.0
  0
LINE
  5
447
  8
BLATTANSICHT_1_GEOMETRIEAN
  6
VOLLINIE
 62
    18
 10
-25.52633773593595
 20
-70.13047232708465
 30
0.0
 11
-25.50519330966188
 21
-70.13047232708465
 31
0.0
  0
LINE
  5
448
  8
BLATTANSICHT_1_GEOMETRIEAN
  6
VOLLINIE
 62
    18
 10
-25.53904033911891
 20
-70.13047232708465
 30
0.0
 11
-25.52633773593595
 21
-70.13047232708465
 31
0.0
  0
LINE
  5
449
  8
BLATTANSICHT_1_GEOMETRIEAN
  6
VOLLINIE
 62
    18
 10
-25.54327719958532
 20
-70.13047232708465
 30
0.0
 11
-25.53904033911891
 21
-70.13047232708465
 31
0.0
  0
LINE
  5
44A
  8
BLATTANSICHT_1_GEOMETRIEAN
  6
VOLLINIE
 62
    18
 10
-25.54327719958532
 20
-50.13047232708467
 30
0.0
 11
-25.54327719958532
 21
-70.13047232708465
 31
0.0
  0
LINE
  5
44B
  8
BLATTANSICHT_1_GEOMETRIEAN
  6
VOLLINIE
 62
    18
 10
0.4538771186948598
 20
-47.44570197574769
 30
0.0
 11
0.4438763393834354
 21
-47.23805355850023
 31
0.0
  0
LINE
  5
44C
  8
BLATTANSICHT_1_GEOMETRIEAN
  6
VOLLINIE
 62
    18
 10
0.4567228004146626
 20
-47.6304723293928
 30
0.0
 11
0.4538771186948598
 21
-47.44570197574769
 31
0.0
  0
LINE
  5
44D
  8
BLATTANSICHT_1_GEOMETRIEAN
  6
VOLLINIE
 62
    18
 10
0.4311278581848768
 20
-47.0768621703049
 30
0.0
 11
0.4053919692221827
 21
-46.8473151849817
 31
0.0
  0
LINE
  5
44E
  8
BLATTANSICHT_1_GEOMETRIEAN
  6
VOLLINIE
 62
    18
 10
0.4438763393834354
 20
-47.23805355850023
 30
0.0
 11
0.4311278581848768
 21
-47.0768621703049
 31
0.0
  0
LINE
  5
44F
  8
BLATTANSICHT_1_GEOMETRIEAN
  6
VOLLINIE
 62
    18
 10
0.3857156329022226
 20
-46.7101223978126
 30
0.0
 11
0.3414344850038571
 21
-46.45993041050149
 31
0.0
  0
LINE
  5
450
  8
BLATTANSICHT_1_GEOMETRIEAN
  6
VOLLINIE
 62
    18
 10
0.4053919692221827
 20
-46.8473151849817
 30
0.0
 11
0.3857156329022226
 21
-46.7101223978126
 31
0.0
  0
LINE
  5
451
  8
BLATTANSICHT_1_GEOMETRIEAN
  6
VOLLINIE
 62
    18
 10
0.3178127069722769
 20
-46.34687382784573
 30
0.0
 11
0.2522777610747873
 21
-46.07755807082211
 31
0.0
  0
LINE
  5
452
  8
BLATTANSICHT_1_GEOMETRIEAN
  6
VOLLINIE
 62
    18
 10
0.3414344850038571
 20
-46.45993041050149
 30
0.0
 11
0.3178127069722769
 21
-46.34687382784573
 31
0.0
  0
LINE
  5
453
  8
BLATTANSICHT_1_GEOMETRIEAN
  6
VOLLINIE
 62
    18
 10
0.2276766594515958
 20
-45.98849438665222
 30
0.0
 11
0.13830358092928
 21
-45.70183554842852
 31
0.0
  0
LINE
  5
454
  8
BLATTANSICHT_1_GEOMETRIEAN
  6
VOLLINIE
 62
    18
 10
0.2522777610747873
 20
-46.07755807082211
 30
0.0
 11
0.2276766594515958
 21
-45.98849438665222
 31
0.0
  0
LINE
  5
455
  8
BLATTANSICHT_1_GEOMETRIEAN
  6
VOLLINIE
 62
    18
 10
0.1156494072423389
 20
-45.63634353020676
 30
0.0
 11
-0.0000000004932685
 21
-45.33437174485143
 31
0.0
  0
LINE
  5
456
  8
BLATTANSICHT_1_GEOMETRIEAN
  6
VOLLINIE
 62
    18
 10
0.13830358092928
 20
-45.70183554842852
 30
0.0
 11
0.1156494072423389
 21
-45.63634353020676
 31
0.0
  0
LINE
  5
457
  8
BLATTANSICHT_1_GEOMETRIEAN
  6
VOLLINIE
 62
    18
 10
-0.3471247789237311
 20
-44.63047232516723
 30
0.0
 11
-0.5416628882585948
 21
-44.31628248932168
 31
0.0
  0
LINE
  5
458
  8
BLATTANSICHT_1_GEOMETRIEAN
  6
VOLLINIE
 62
    18
 10
-0.5416628882585948
 20
-44.31628248932168
 30
0.0
 11
-0.5544595321532736
 21
-44.29705092082558
 31
0.0
  0
LINE
  5
459
  8
BLATTANSICHT_1_GEOMETRIEAN
  6
VOLLINIE
 62
    18
 10
-0.986847699657053
 20
-43.72676252585926
 30
0.0
 11
-1.032238358881613
 21
-43.6743974328185
 31
0.0
  0
LINE
  5
45A
  8
BLATTANSICHT_1_GEOMETRIEAN
  6
VOLLINIE
 62
    18
 10
-0.7831571632516036
 20
-43.97790374721387
 30
0.0
 11
-0.986847699657053
 21
-43.72676252585926
 31
0.0
  0
LINE
  5
45B
  8
BLATTANSICHT_1_GEOMETRIEAN
  6
VOLLINIE
 62
    18
 10
-1.235805661198639
 20
-43.45366865130715
 30
0.0
 11
-1.300636515137306
 21
-43.38783163825663
 31
0.0
  0
LINE
  5
45C
  8
BLATTANSICHT_1_GEOMETRIEAN
  6
VOLLINIE
 62
    18
 10
-1.032238358881613
 20
-43.6743974328185
 30
0.0
 11
-1.235805661198639
 21
-43.45366865130715
 31
0.0
  0
LINE
  5
45D
  8
BLATTANSICHT_1_GEOMETRIEAN
  6
VOLLINIE
 62
    18
 10
-4.079794878935001
 20
-41.81169071087462
 30
0.0
 11
-4.142605020419595
 21
-41.79625280402072
 31
0.0
  0
LINE
  5
45E
  8
BLATTANSICHT_1_GEOMETRIEAN
  6
VOLLINIE
 62
    18
 10
-4.440780092685844
 20
-41.73263372898127
 30
0.0
 11
-4.604670411671562
 21
-41.70434228334645
 31
0.0
  0
LINE
  5
45F
  8
BLATTANSICHT_1_GEOMETRIEAN
  6
VOLLINIE
 62
    18
 10
-4.142605020419595
 20
-41.79625280402072
 30
0.0
 11
-4.440780092685844
 21
-41.73263372898127
 31
0.0
  0
LINE
  5
460
  8
BLATTANSICHT_1_GEOMETRIEAN
  6
VOLLINIE
 62
    18
 10
-4.805947455596984
 20
-41.67594926905306
 30
0.0
 11
-5.072522625853017
 21
-41.64896832476513
 31
0.0
  0
LINE
  5
461
  8
BLATTANSICHT_1_GEOMETRIEAN
  6
VOLLINIE
 62
    18
 10
-4.604670411671562
 20
-41.70434228334645
 30
0.0
 11
-4.805947455596984
 21
-41.67594926905306
 31
0.0
  0
LINE
  5
462
  8
BLATTANSICHT_1_GEOMETRIEAN
  6
VOLLINIE
 62
    18
 10
-5.173911762781612
 20
-41.64185235466241
 30
0.0
 11
-5.543277198507817
 21
-41.63047232708468
 31
0.0
  0
LINE
  5
463
  8
BLATTANSICHT_1_GEOMETRIEAN
  6
VOLLINIE
 62
    18
 10
-5.072522625853017
 20
-41.64896832476513
 30
0.0
 11
-5.173911762781612
 21
-41.64185235466241
 31
0.0
  0
LINE
  5
464
  8
BLATTANSICHT_1_GEOMETRIEAN
  6
VOLLINIE
 62
    18
 10
-3.724361154907007
 20
-41.91282032452175
 30
0.0
 11
-4.079794878935001
 21
-41.81169071087462
 31
0.0
  0
LINE
  5
465
  8
BLATTANSICHT_1_GEOMETRIEAN
  6
VOLLINIE
 62
    18
 10
-3.689175238865834
 20
-41.92413322786878
 30
0.0
 11
-3.724361154907007
 21
-41.91282032452175
 31
0.0
  0
LINE
  5
466
  8
BLATTANSICHT_1_GEOMETRIEAN
  6
VOLLINIE
 62
    18
 10
-3.375827202462361
 20
-42.03563895065856
 30
0.0
 11
-3.689175238865834
 21
-41.92413322786878
 31
0.0
  0
LINE
  5
467
  8
BLATTANSICHT_1_GEOMETRIEAN
  6
VOLLINIE
 62
    18
 10
-3.24717661237395
 20
-42.08719512955874
 30
0.0
 11
-3.375827202462361
 21
-42.03563895065856
 31
0.0
  0
LINE
  5
468
  8
BLATTANSICHT_1_GEOMETRIEAN
  6
VOLLINIE
 62
    18
 10
-3.035515130264572
 20
-42.17968069616755
 30
0.0
 11
-3.24717661237395
 21
-42.08719512955874
 31
0.0
  0
LINE
  5
469
  8
BLATTANSICHT_1_GEOMETRIEAN
  6
VOLLINIE
 62
    18
 10
-2.889545061530792
 20
-42.24923587678521
 30
0.0
 11
-3.035515130264572
 21
-42.17968069616755
 31
0.0
  0
LINE
  5
46A
  8
BLATTANSICHT_1_GEOMETRIEAN
  6
VOLLINIE
 62
    18
 10
-2.70471585856922
 20
-42.34439916136999
 30
0.0
 11
-2.889545061530792
 21
-42.24923587678521
 31
0.0
  0
LINE
  5
46B
  8
BLATTANSICHT_1_GEOMETRIEAN
  6
VOLLINIE
 62
    18
 10
-2.543277199343514
 20
-42.43431990509787
 30
0.0
 11
-2.70471585856922
 21
-42.34439916136999
 31
0.0
  0
LINE
  5
46C
  8
BLATTANSICHT_1_GEOMETRIEAN
  6
VOLLINIE
 62
    18
 10
-2.384684222321145
 20
-42.52916951270701
 30
0.0
 11
-2.543277199343514
 21
-42.43431990509787
 31
0.0
  0
LINE
  5
46D
  8
BLATTANSICHT_1_GEOMETRIEAN
  6
VOLLINIE
 62
    18
 10
-2.209855797987821
 20
-42.64165465625696
 30
0.0
 11
-2.384684222321145
 21
-42.52916951270701
 31
0.0
  0
LINE
  5
46E
  8
BLATTANSICHT_1_GEOMETRIEAN
  6
VOLLINIE
 62
    18
 10
-2.076634211135776
 20
-42.73329085294738
 30
0.0
 11
-2.209855797987821
 21
-42.64165465625696
 31
0.0
  0
LINE
  5
46F
  8
BLATTANSICHT_1_GEOMETRIEAN
  6
VOLLINIE
 62
    18
 10
-1.890708624309314
 20
-42.87035228702828
 30
0.0
 11
-2.076634211135776
 21
-42.73329085294738
 31
0.0
  0
LINE
  5
470
  8
BLATTANSICHT_1_GEOMETRIEAN
  6
VOLLINIE
 62
    18
 10
-0.0178440919155907
 20
-45.29175708732864
 30
0.0
 11
-0.1620407489498761
 21
-44.97674019058149
 31
0.0
  0
LINE
  5
471
  8
BLATTANSICHT_1_GEOMETRIEAN
  6
VOLLINIE
 62
    18
 10
-0.0000000004932685
 20
-45.33437174485143
 30
0.0
 11
-0.0178440919155907
 21
-45.29175708732864
 31
0.0
  0
LINE
  5
472
  8
BLATTANSICHT_1_GEOMETRIEAN
  6
VOLLINIE
 62
    18
 10
-0.172297451454936
 20
-44.95604219242549
 30
0.0
 11
-0.3471247789237311
 21
-44.63047232516723
 31
0.0
  0
LINE
  5
473
  8
BLATTANSICHT_1_GEOMETRIEAN
  6
VOLLINIE
 62
    18
 10
-0.1620407489498761
 20
-44.97674019058149
 30
0.0
 11
-0.172297451454936
 21
-44.95604219242549
 31
0.0
  0
LINE
  5
474
  8
BLATTANSICHT_1_GEOMETRIEAN
  6
VOLLINIE
 62
    18
 10
-1.501103337705952
 20
-43.19641882376075
 30
0.0
 11
-1.587202309820272
 21
-43.11943348232946
 31
0.0
  0
LINE
  5
475
  8
BLATTANSICHT_1_GEOMETRIEAN
  6
VOLLINIE
 62
    18
 10
-1.300636515137306
 20
-43.38783163825663
 30
0.0
 11
-1.501103337705952
 21
-43.19641882376075
 31
0.0
  0
LINE
  5
476
  8
BLATTANSICHT_1_GEOMETRIEAN
  6
VOLLINIE
 62
    18
 10
-1.781734364220652
 20
-42.95598887993069
 30
0.0
 11
-1.890708624309314
 21
-42.87035228702828
 31
0.0
  0
LINE
  5
477
  8
BLATTANSICHT_1_GEOMETRIEAN
  6
VOLLINIE
 62
    18
 10
-1.587202309820272
 20
-43.11943348232946
 30
0.0
 11
-1.781734364220652
 21
-42.95598887993069
 31
0.0
  0
LINE
  5
478
  8
BLATTANSICHT_1_GEOMETRIEAN
  6
VOLLINIE
 62
    18
 10
-0.7551738359038659
 20
-44.01466450880918
 30
0.0
 11
-0.7831571632516036
 21
-43.97790374721387
 31
0.0
  0
LINE
  5
479
  8
BLATTANSICHT_1_GEOMETRIEAN
  6
VOLLINIE
 62
    18
 10
-0.5544595321532736
 20
-44.29705092082558
 30
0.0
 11
-0.7551738359038659
 21
-44.01466450880918
 31
0.0
  0
LINE
  5
47A
  8
BLATTANSICHT_1_GEOMETRIEAN
  6
VOLLINIE
 62
    18
 10
0.4438763393834354
 20
-47.23805355850023
 30
0.0
 11
0.4567228004146626
 21
-47.6304723293928
 31
0.0
  0
LINE
  5
47B
  8
BLATTANSICHT_1_GEOMETRIEAN
  6
VOLLINIE
 62
    18
 10
0.4053919692221827
 20
-46.8473151849817
 30
0.0
 11
0.4438763393834354
 21
-47.23805355850023
 31
0.0
  0
LINE
  5
47C
  8
BLATTANSICHT_1_GEOMETRIEAN
  6
VOLLINIE
 62
    18
 10
0.3414344850038571
 20
-46.45993041050149
 30
0.0
 11
0.4053919692221827
 21
-46.8473151849817
 31
0.0
  0
LINE
  5
47D
  8
BLATTANSICHT_1_GEOMETRIEAN
  6
VOLLINIE
 62
    18
 10
0.2522777610747873
 20
-46.07755807082211
 30
0.0
 11
0.3414344850038571
 21
-46.45993041050149
 31
0.0
  0
LINE
  5
47E
  8
BLATTANSICHT_1_GEOMETRIEAN
  6
VOLLINIE
 62
    18
 10
0.13830358092928
 20
-45.70183554842852
 30
0.0
 11
0.2522777610747873
 21
-46.07755807082211
 31
0.0
  0
LINE
  5
47F
  8
BLATTANSICHT_1_GEOMETRIEAN
  6
VOLLINIE
 62
    18
 10
-0.0000000004932685
 20
-45.33437174485143
 30
0.0
 11
0.13830358092928
 21
-45.70183554842852
 31
0.0
  0
LINE
  5
480
  8
BLATTANSICHT_1_GEOMETRIEAN
  6
VOLLINIE
 62
    18
 10
-0.5544595321532736
 20
-44.29705092082558
 30
0.0
 11
-0.3471247789237311
 21
-44.63047232516723
 31
0.0
  0
LINE
  5
481
  8
BLATTANSICHT_1_GEOMETRIEAN
  6
VOLLINIE
 62
    18
 10
-0.1620407489498761
 20
-44.97674019058149
 30
0.0
 11
-0.0000000004932685
 21
-45.33437174485143
 31
0.0
  0
LINE
  5
482
  8
BLATTANSICHT_1_GEOMETRIEAN
  6
VOLLINIE
 62
    18
 10
-0.3471247789237311
 20
-44.63047232516723
 30
0.0
 11
-0.1620407489498761
 21
-44.97674019058149
 31
0.0
  0
LINE
  5
483
  8
BLATTANSICHT_1_GEOMETRIEAN
  6
VOLLINIE
 62
    18
 10
-1.032238358881613
 20
-43.6743974328185
 30
0.0
 11
-0.7831571632516036
 21
-43.97790374721387
 31
0.0
  0
LINE
  5
484
  8
BLATTANSICHT_1_GEOMETRIEAN
  6
VOLLINIE
 62
    18
 10
-1.300636515137306
 20
-43.38783163825663
 30
0.0
 11
-1.032238358881613
 21
-43.6743974328185
 31
0.0
  0
LINE
  5
485
  8
BLATTANSICHT_1_GEOMETRIEAN
  6
VOLLINIE
 62
    18
 10
-0.7831571632516036
 20
-43.97790374721387
 30
0.0
 11
-0.5544595321532736
 21
-44.29705092082558
 31
0.0
  0
LINE
  5
486
  8
BLATTANSICHT_1_GEOMETRIEAN
  6
VOLLINIE
 62
    18
 10
-4.142605020419595
 20
-41.79625280402072
 30
0.0
 11
-3.689175238865834
 21
-41.92413322786878
 31
0.0
  0
LINE
  5
487
  8
BLATTANSICHT_1_GEOMETRIEAN
  6
VOLLINIE
 62
    18
 10
-4.604670411671562
 20
-41.70434228334645
 30
0.0
 11
-4.142605020419595
 21
-41.79625280402072
 31
0.0
  0
LINE
  5
488
  8
BLATTANSICHT_1_GEOMETRIEAN
  6
VOLLINIE
 62
    18
 10
-5.072522625853017
 20
-41.64896832476513
 30
0.0
 11
-4.604670411671562
 21
-41.70434228334645
 31
0.0
  0
LINE
  5
489
  8
BLATTANSICHT_1_GEOMETRIEAN
  6
VOLLINIE
 62
    18
 10
-5.543277198507817
 20
-41.63047232708468
 30
0.0
 11
-5.072522625853017
 21
-41.64896832476513
 31
0.0
  0
LINE
  5
48A
  8
BLATTANSICHT_1_GEOMETRIEAN
  6
VOLLINIE
 62
    18
 10
-3.689175238865834
 20
-41.92413322786878
 30
0.0
 11
-3.24717661237395
 21
-42.08719512955874
 31
0.0
  0
LINE
  5
48B
  8
BLATTANSICHT_1_GEOMETRIEAN
  6
VOLLINIE
 62
    18
 10
-3.24717661237395
 20
-42.08719512955874
 30
0.0
 11
-2.889545061530792
 21
-42.24923587678521
 31
0.0
  0
LINE
  5
48C
  8
BLATTANSICHT_1_GEOMETRIEAN
  6
VOLLINIE
 62
    18
 10
-2.889545061530792
 20
-42.24923587678521
 30
0.0
 11
-2.543277199343514
 21
-42.43431990509787
 31
0.0
  0
LINE
  5
48D
  8
BLATTANSICHT_1_GEOMETRIEAN
  6
VOLLINIE
 62
    18
 10
-2.543277199343514
 20
-42.43431990509787
 30
0.0
 11
-2.209855797987821
 21
-42.64165465625696
 31
0.0
  0
LINE
  5
48E
  8
BLATTANSICHT_1_GEOMETRIEAN
  6
VOLLINIE
 62
    18
 10
-2.209855797987821
 20
-42.64165465625696
 30
0.0
 11
-1.890708624309314
 21
-42.87035228702828
 31
0.0
  0
LINE
  5
48F
  8
BLATTANSICHT_1_GEOMETRIEAN
  6
VOLLINIE
 62
    18
 10
-1.587202309820272
 20
-43.11943348232946
 30
0.0
 11
-1.300636515137306
 21
-43.38783163825663
 31
0.0
  0
LINE
  5
490
  8
BLATTANSICHT_1_GEOMETRIEAN
  6
VOLLINIE
 62
    18
 10
-1.890708624309314
 20
-42.87035228702828
 30
0.0
 11
-1.587202309820272
 21
-43.11943348232946
 31
0.0
  0
VIEWPORT
  5
62
 67
     1
  8
0
 10
0.0
 20
0.0
 30
0.0
 40
1.0
 41
1.0
 68
     1
 69
     1
1001
ACAD
1000
MVIEW
1002
{
1070
    16
1010
0.0
1020
0.0
1030
0.0
1020
0.0
1030
0.0
1010
0.0
1020
0.0
1030
1.0
1020
0.0
1030
1.0
1040
0.0
1040
1.0
1040
0.0
1040
0.0
1040
50.0
1040
0.0
1040
0.0
1070
     0
1070
   100
1070
     0
1070
     3
1070
     0
1070
     0
1070
     0
1070
     0
1040
0.0
1040
0.0
1040
0.0
1040
0.5
1040
0.5
1040
0.0
1040
0.0
1070
     0
1002
{
1002
}
1002
}
  0
ENDSEC
  0
EOF
