  0
SECTION
  2
HEADER
  9
$ACADVER
  1
AC1009
  9
$DWGCODEPAGE
  3
ansi_1252
  9
$INSBASE
 10
0.0
 20
0.0
 30
0.0
  9
$EXTMIN
 10
-25.998925399356
 20
-100.2440829231255
 30
-0.0000000000000021
  9
$EXTMAX
 10
127.7805273080413
 20
203.2869791183288
 30
73.04137076870592
  9
$LIMMIN
 10
0.0
 20
0.0
  9
$LIMMAX
 10
12.0
 20
9.0
  9
$ORTHOMODE
 70
     0
  9
$REGENMODE
 70
     1
  9
$FILLMODE
 70
     1
  9
$QTEXTMODE
 70
     0
  9
$MIRRTEXT
 70
     1
  9
$DRAGMODE
 70
     2
  9
$LTSCALE
 40
1.0
  9
$OSMODE
 70
    37
  9
$ATTMODE
 70
     1
  9
$TEXTSIZE
 40
0.2
  9
$TRACEWID
 40
0.05
  9
$TEXTSTYLE
  7
STANDARD
  9
$CLAYER
  8
0
  9
$CELTYPE
  6
BYLAYER
  9
$CECOLOR
 62
   256
  9
$DIMSCALE
 40
1.0
  9
$DIMASZ
 40
0.18
  9
$DIMEXO
 40
0.0625
  9
$DIMDLI
 40
0.38
  9
$DIMRND
 40
0.0
  9
$DIMDLE
 40
0.0
  9
$DIMEXE
 40
0.18
  9
$DIMTP
 40
0.0
  9
$DIMTM
 40
0.0
  9
$DIMTXT
 40
0.18
  9
$DIMCEN
 40
0.09
  9
$DIMTSZ
 40
0.0
  9
$DIMTOL
 70
     0
  9
$DIMLIM
 70
     0
  9
$DIMTIH
 70
     1
  9
$DIMTOH
 70
     1
  9
$DIMSE1
 70
     0
  9
$DIMSE2
 70
     0
  9
$DIMTAD
 70
     0
  9
$DIMZIN
 70
     0
  9
$DIMBLK
  1

  9
$DIMASO
 70
     1
  9
$DIMSHO
 70
     1
  9
$DIMPOST
  1

  9
$DIMAPOST
  1

  9
$DIMALT
 70
     0
  9
$DIMALTD
 70
     2
  9
$DIMALTF
 40
25.4
  9
$DIMLFAC
 40
1.0
  9
$DIMTOFL
 70
     0
  9
$DIMTVP
 40
0.0
  9
$DIMTIX
 70
     0
  9
$DIMSOXD
 70
     0
  9
$DIMSAH
 70
     0
  9
$DIMBLK1
  1

  9
$DIMBLK2
  1

  9
$DIMSTYLE
  2
STANDARD
  9
$DIMCLRD
 70
     0
  9
$DIMCLRE
 70
     0
  9
$DIMCLRT
 70
     0
  9
$DIMTFAC
 40
1.0
  9
$DIMGAP
 40
0.09
  9
$LUNITS
 70
     2
  9
$LUPREC
 70
     4
  9
$SKETCHINC
 40
0.1
  9
$FILLETRAD
 40
0.5
  9
$AUNITS
 70
     0
  9
$AUPREC
 70
     0
  9
$MENU
  1
.
  9
$ELEVATION
 40
0.0
  9
$PELEVATION
 40
0.0
  9
$THICKNESS
 40
0.0
  9
$LIMCHECK
 70
     0
  9
$CHAMFERA
 40
0.5
  9
$CHAMFERB
 40
0.5
  9
$SKPOLY
 70
     0
  9
$TDCREATE
 40
2305814.702546296
  9
$TDUPDATE
 40
2305814.702546308
  9
$TDINDWG
 40
0.0000000116
  9
$TDUSRTIMER
 40
0.0000000116
  9
$USRTIMER
 70
     1
  9
$ANGBASE
 50
0.0
  9
$ANGDIR
 70
     0
  9
$PDMODE
 70
     0
  9
$PDSIZE
 40
0.0
  9
$PLINEWID
 40
0.0
  9
$COORDS
 70
     1
  9
$SPLFRAME
 70
     0
  9
$SPLINETYPE
 70
     6
  9
$SPLINESEGS
 70
     8
  9
$ATTDIA
 70
     0
  9
$ATTREQ
 70
     1
  9
$HANDLING
 70
     1
  9
$HANDSEED
  5
2C7
  9
$SURFTAB1
 70
     6
  9
$SURFTAB2
 70
     6
  9
$SURFTYPE
 70
     6
  9
$SURFU
 70
     6
  9
$SURFV
 70
     6
  9
$UCSNAME
  2

  9
$UCSORG
 10
0.0
 20
0.0
 30
0.0
  9
$UCSXDIR
 10
1.0
 20
0.0
 30
0.0
  9
$UCSYDIR
 10
0.0
 20
1.0
 30
0.0
  9
$PUCSNAME
  2

  9
$PUCSORG
 10
0.0
 20
0.0
 30
0.0
  9
$PUCSXDIR
 10
1.0
 20
0.0
 30
0.0
  9
$PUCSYDIR
 10
0.0
 20
1.0
 30
0.0
  9
$USERI1
 70
     0
  9
$USERI2
 70
     0
  9
$USERI3
 70
     0
  9
$USERI4
 70
     0
  9
$USERI5
 70
     0
  9
$USERR1
 40
0.0
  9
$USERR2
 40
0.0
  9
$USERR3
 40
0.0
  9
$USERR4
 40
0.0
  9
$USERR5
 40
0.0
  9
$WORLDVIEW
 70
     1
  9
$SHADEDGE
 70
     3
  9
$SHADEDIF
 70
    70
  9
$TILEMODE
 70
     1
  9
$MAXACTVP
 70
    64
  9
$PLIMCHECK
 70
     0
  9
$PEXTMIN
 10
1.000000000000000E+20
 20
1.000000000000000E+20
 30
1.000000000000000E+20
  9
$PEXTMAX
 10
-1.000000000000000E+20
 20
-1.000000000000000E+20
 30
-1.000000000000000E+20
  9
$PLIMMIN
 10
0.0
 20
0.0
  9
$PLIMMAX
 10
12.0
 20
9.0
  9
$UNITMODE
 70
     0
  9
$VISRETAIN
 70
     1
  9
$PLINEGEN
 70
     0
  9
$PSLTSCALE
 70
     1
  0
ENDSEC
  0
SECTION
  2
TABLES
  0
TABLE
  2
VPORT
 70
     1
  0
VPORT
  2
*ACTIVE
 70
     0
 10
0.0
 20
0.0
 11
1.0
 21
1.0
 12
0.0
 22
0.0
 13
0.0
 23
0.0
 14
0.5
 24
0.5
 15
0.5
 25
0.5
 16
0.0
 26
0.0
 36
1.0
 17
16.78169281872664
 27
-24.02539634353943
 37
0.0
 40
65.94380854082044
 41
1.323436772852834
 42
50.0
 43
0.0
 44
0.0
 50
0.0
 51
0.0
 71
     0
 72
   100
 73
     1
 74
     3
 75
     0
 76
     0
 77
     0
 78
     0
  0
ENDTAB
  0
TABLE
  2
LTYPE
 70
    12
  0
LTYPE
  2
CONTINUOUS
 70
     0
  3
Solid line
 72
    65
 73
     0
 40
0.0
  0
LTYPE
  2
VOLLINIE
 70
     0
  3
____________________
 72
    65
 73
     0
 40
0.0
  0
LTYPE
  2
ZWEISTRICHPUNKT
 70
     0
  3
__ __ . __ __ . __ 
 72
    65
 73
     6
 40
22.225
 49
0.25
 49
-0.125
 49
0.25
 49
-0.125
 49
0.0
 49
-0.125
  0
LTYPE
  2
STRICHPUNKT_LANG
 70
     0
  3
___ _ ___ _ ___ _ _
 72
    65
 73
     4
 40
28.575
 49
0.75
 49
-0.125
 49
0.125
 49
-0.125
  0
LTYPE
  2
STRICHPUNKT
 70
     0
  3
_._._._._._._._._._
 72
    65
 73
     4
 40
12.7
 49
0.25
 49
-0.125
 49
0.0
 49
-0.125
  0
LTYPE
  2
STRICHLINIE_LANG
 70
     0
  3
_ _ _ _ _ _ _ _ _ _
 72
    65
 73
     2
 40
9.524999999999999
 49
0.25
 49
-0.125
  0
LTYPE
  2
STRICHZWEIPKT__KURZ
 70
     0
  3
__..__..__..__..__.
 72
    65
 73
     6
 40
15.875
 49
0.25
 49
-0.125
 49
0.0
 49
-0.125
 49
0.0
 49
-0.125
  0
LTYPE
  2
GEPUNKTET
 70
     0
  3
...................
 72
    65
 73
     2
 40
3.175
 49
0.0
 49
-0.125
  0
LTYPE
  2
STRICHLINIE
 70
     0
  3
__ __ __ __ __ __ _
 72
    65
 73
     2
 40
4.762499999999999
 49
0.125
 49
-0.0625
  0
LTYPE
  2
STRICHZWEIPUNKT
 70
     0
  3
___ _ _ ___ _ _ ___
 72
    65
 73
     6
 40
31.75
 49
0.625
 49
-0.125
 49
0.125
 49
-0.125
 49
0.125
 49
-0.125
  0
LTYPE
  2
STRICHZWEIPKT__LANG
 70
     0
  3
________ _ _ ______
 72
    65
 73
     6
 40
37.2745
 49
1.0
 49
-0.0725
 49
0.125
 49
-0.0725
 49
0.125
 49
-0.0725
  0
LTYPE
  2
STRICHLINIE_KURZ
 70
     0
  3
_ _ _ _ _ _ _ _ _ _
 72
    65
 73
     2
 40
3.682999999999999
 49
0.0725
 49
-0.0725
  0
ENDTAB
  0
TABLE
  2
LAYER
 70
     5
  0
LAYER
  2
0
 70
     0
 62
     7
  6
CONTINUOUS
  0
LAYER
  2
IGES-IMPORT_CS_CT-22-2
 70
     0
 62
    -7
  6
CONTINUOUS
  0
LAYER
  2
BLATTANSICHT_1
 70
     0
 62
     7
  6
CONTINUOUS
  0
LAYER
  2
BLATTANSICHT_1_SCHRIFTKOPF
 70
     0
 62
     7
  6
CONTINUOUS
  0
LAYER
  2
BLATTANSICHT_1_GEOMETRIEAN
 70
     0
 62
     7
  6
CONTINUOUS
  0
ENDTAB
  0
TABLE
  2
STYLE
 70
     1
  0
STYLE
  2
STANDARD
 70
     0
 40
0.0
 41
1.0
 50
0.0
 71
     0
 42
0.2
  3
txt
  4

  0
ENDTAB
  0
TABLE
  2
VIEW
 70
     0
  0
ENDTAB
  0
TABLE
  2
UCS
 70
     0
  0
ENDTAB
  0
TABLE
  2
APPID
 70
     2
  0
APPID
  2
ACAD
 70
     0
  0
APPID
  2
PUNCH__SOFTWARE_VIACAD
 70
     0
  0
ENDTAB
  0
TABLE
  2
DIMSTYLE
 70
     1
  0
DIMSTYLE
  2
STANDARD
 70
     0
  3

  4

  5

  6

  7

 40
1.0
 41
0.18
 42
0.0625
 43
0.38
 44
0.18
 45
0.0
 46
0.0
 47
0.0
 48
0.0
140
0.18
141
0.09
142
0.0
143
25.4
144
1.0
145
0.0
146
1.0
147
0.09
 71
     0
 72
     0
 73
     1
 74
     1
 75
     0
 76
     0
 77
     0
 78
     0
170
     0
171
     2
172
     0
173
     0
174
     0
175
     0
176
     0
177
     0
178
     0
  0
ENDTAB
  0
ENDSEC
  0
SECTION
  2
BLOCKS
  0
BLOCK
  8
0
  2
$MODEL_SPACE
 70
     0
 10
0.0
 20
0.0
 30
0.0
  3
$MODEL_SPACE
  1

  0
ENDBLK
  5
21
  8
0
  0
BLOCK
 67
     1
  8
0
  2
$PAPER_SPACE
 70
     0
 10
0.0
 20
0.0
 30
0.0
  3
$PAPER_SPACE
  1

  0
ENDBLK
  5
1D
 67
     1
  8
0
  0
ENDSEC
  0
SECTION
  2
ENTITIES
  0
LINE
  5
6E
  8
BLATTANSICHT_1_GEOMETRIEAN
  6
VOLLINIE
 62
    18
 10
52.68650851885927
 20
1.499999999999997
 30
0.0
 11
52.58643035940929
 21
1.499999999999997
 31
0.0
  0
LINE
  5
6F
  8
BLATTANSICHT_1_GEOMETRIEAN
  6
VOLLINIE
 62
    18
 10
52.78508040960927
 20
1.499999999999997
 30
0.0
 11
52.68650851885927
 21
1.499999999999997
 31
0.0
  0
LINE
  5
70
  8
BLATTANSICHT_1_GEOMETRIEAN
  6
VOLLINIE
 62
    18
 10
53.06752945155927
 20
1.499999999999997
 30
0.0
 11
52.97582582140929
 21
1.499999999999997
 31
0.0
  0
LINE
  5
71
  8
BLATTANSICHT_1_GEOMETRIEAN
  6
VOLLINIE
 62
    18
 10
53.1567870312093
 20
1.499999999999997
 30
0.0
 11
53.06752945155927
 21
1.499999999999997
 31
0.0
  0
LINE
  5
72
  8
BLATTANSICHT_1_GEOMETRIEAN
  6
VOLLINIE
 62
    18
 10
52.88167614075929
 20
1.499999999999997
 30
0.0
 11
52.78508040960927
 21
1.499999999999997
 31
0.0
  0
LINE
  5
73
  8
BLATTANSICHT_1_GEOMETRIEAN
  6
VOLLINIE
 62
    18
 10
52.97582582140929
 20
1.499999999999997
 30
0.0
 11
52.88167614075929
 21
1.499999999999997
 31
0.0
  0
LINE
  5
74
  8
BLATTANSICHT_1_GEOMETRIEAN
  6
VOLLINIE
 62
    18
 10
52.58643035940929
 20
1.499999999999997
 30
0.0
 11
52.4848459312593
 21
1.499999999999997
 31
0.0
  0
LINE
  5
75
  8
BLATTANSICHT_1_GEOMETRIEAN
  6
VOLLINIE
 62
    18
 10
52.4848459312593
 20
1.499999999999997
 30
0.0
 11
52.3817552344093
 21
1.499999999999997
 31
0.0
  0
LINE
  5
76
  8
BLATTANSICHT_1_GEOMETRIEAN
  6
VOLLINIE
 62
    18
 10
53.24317567070928
 20
1.499999999999997
 30
0.0
 11
53.1567870312093
 21
1.499999999999997
 31
0.0
  0
LINE
  5
77
  8
BLATTANSICHT_1_GEOMETRIEAN
  6
VOLLINIE
 62
    18
 10
53.4825906104093
 20
1.499999999999997
 30
0.0
 11
53.40607746030928
 21
1.499999999999997
 31
0.0
  0
LINE
  5
78
  8
BLATTANSICHT_1_GEOMETRIEAN
  6
VOLLINIE
 62
    18
 10
53.32627248040926
 20
1.499999999999997
 30
0.0
 11
53.24317567070928
 21
1.499999999999997
 31
0.0
  0
LINE
  5
79
  8
BLATTANSICHT_1_GEOMETRIEAN
  6
VOLLINIE
 62
    18
 10
53.40607746030928
 20
1.499999999999997
 30
0.0
 11
53.32627248040926
 21
1.499999999999997
 31
0.0
  0
LINE
  5
7A
  8
BLATTANSICHT_1_GEOMETRIEAN
  6
VOLLINIE
 62
    18
 10
53.55545229300928
 20
1.499999999999997
 30
0.0
 11
53.4825906104093
 21
1.499999999999997
 31
0.0
  0
LINE
  5
7B
  8
BLATTANSICHT_1_GEOMETRIEAN
  6
VOLLINIE
 62
    18
 10
53.6243028704093
 20
1.499999999999997
 30
0.0
 11
53.55545229300928
 21
1.499999999999997
 31
0.0
  0
LINE
  5
7C
  8
BLATTANSICHT_1_GEOMETRIEAN
  6
VOLLINIE
 62
    18
 10
53.80650539770927
 20
1.499999999999997
 30
0.0
 11
53.74997070960926
 21
1.499999999999997
 31
0.0
  0
LINE
  5
7D
  8
BLATTANSICHT_1_GEOMETRIEAN
  6
VOLLINIE
 62
    18
 10
53.85846384840929
 20
1.499999999999997
 30
0.0
 11
53.80650539770927
 21
1.499999999999997
 31
0.0
  0
LINE
  5
7E
  8
BLATTANSICHT_1_GEOMETRIEAN
  6
VOLLINIE
 62
    18
 10
53.90584606170927
 20
1.499999999999997
 30
0.0
 11
53.85846384840929
 21
1.499999999999997
 31
0.0
  0
LINE
  5
7F
  8
BLATTANSICHT_1_GEOMETRIEAN
  6
VOLLINIE
 62
    18
 10
53.9486520376093
 20
1.499999999999997
 30
0.0
 11
53.90584606170927
 21
1.499999999999997
 31
0.0
  0
LINE
  5
80
  8
BLATTANSICHT_1_GEOMETRIEAN
  6
VOLLINIE
 62
    18
 10
53.68914234260927
 20
1.499999999999997
 30
0.0
 11
53.6243028704093
 21
1.499999999999997
 31
0.0
  0
LINE
  5
81
  8
BLATTANSICHT_1_GEOMETRIEAN
  6
VOLLINIE
 62
    18
 10
53.74997070960926
 20
1.499999999999997
 30
0.0
 11
53.68914234260927
 21
1.499999999999997
 31
0.0
  0
LINE
  5
82
  8
BLATTANSICHT_1_GEOMETRIEAN
  6
VOLLINIE
 62
    18
 10
54.0197567256093
 20
1.499999999999997
 30
0.0
 11
53.9866871344093
 21
1.499999999999997
 31
0.0
  0
LINE
  5
83
  8
BLATTANSICHT_1_GEOMETRIEAN
  6
VOLLINIE
 62
    18
 10
54.0478608112093
 20
1.499999999999997
 30
0.0
 11
54.0197567256093
 21
1.499999999999997
 31
0.0
  0
LINE
  5
84
  8
BLATTANSICHT_1_GEOMETRIEAN
  6
VOLLINIE
 62
    18
 10
54.07099939120926
 20
1.499999999999997
 30
0.0
 11
54.0478608112093
 21
1.499999999999997
 31
0.0
  0
LINE
  5
85
  8
BLATTANSICHT_1_GEOMETRIEAN
  6
VOLLINIE
 62
    18
 10
53.9866871344093
 20
1.499999999999997
 30
0.0
 11
53.9486520376093
 21
1.499999999999997
 31
0.0
  0
LINE
  5
86
  8
BLATTANSICHT_1_GEOMETRIEAN
  6
VOLLINIE
 62
    18
 10
54.10972905295927
 20
1.499999999999997
 30
0.0
 11
54.10198312060929
 21
1.499999999999997
 31
0.0
  0
LINE
  5
87
  8
BLATTANSICHT_1_GEOMETRIEAN
  6
VOLLINIE
 62
    18
 10
54.11231103040929
 20
1.499999999999997
 30
0.0
 11
54.10972905295927
 21
1.499999999999997
 31
0.0
  0
LINE
  5
88
  8
BLATTANSICHT_1_GEOMETRIEAN
  6
VOLLINIE
 62
    18
 10
54.08907323335927
 20
1.499999999999997
 30
0.0
 11
54.07099939120926
 21
1.499999999999997
 31
0.0
  0
LINE
  5
89
  8
BLATTANSICHT_1_GEOMETRIEAN
  6
VOLLINIE
 62
    18
 10
54.10198312060929
 20
1.499999999999997
 30
0.0
 11
54.08907323335927
 21
1.499999999999997
 31
0.0
  0
LINE
  5
8A
  8
BLATTANSICHT_1_GEOMETRIEAN
  6
VOLLINIE
 62
    18
 10
52.3817552344093
 20
1.499999999999997
 30
0.0
 11
52.27765709295927
 21
1.499999999999997
 31
0.0
  0
LINE
  5
8B
  8
BLATTANSICHT_1_GEOMETRIEAN
  6
VOLLINIE
 62
    18
 10
52.27765709295927
 20
1.499999999999997
 30
0.0
 11
52.17305034620927
 21
1.499999999999997
 31
0.0
  0
LINE
  5
8C
  8
BLATTANSICHT_1_GEOMETRIEAN
  6
VOLLINIE
 62
    18
 10
52.17305034620927
 20
1.499999999999997
 30
0.0
 11
52.06793499415927
 21
1.499999999999997
 31
0.0
  0
LINE
  5
8D
  8
BLATTANSICHT_1_GEOMETRIEAN
  6
VOLLINIE
 62
    18
 10
52.5187719859106
 20
1.499999999999997
 30
0.0
 11
52.38175523341807
 21
1.499999999999997
 31
0.0
  0
LINE
  5
8E
  8
BLATTANSICHT_1_GEOMETRIEAN
  6
VOLLINIE
 62
    18
 10
52.65340588726249
 20
1.499999999999997
 30
0.0
 11
52.5187719859106
 21
1.499999999999997
 31
0.0
  0
LINE
  5
8F
  8
BLATTANSICHT_1_GEOMETRIEAN
  6
VOLLINIE
 62
    18
 10
52.78508041445637
 20
1.499999999999997
 30
0.0
 11
52.65340588726249
 21
1.499999999999997
 31
0.0
  0
LINE
  5
90
  8
BLATTANSICHT_1_GEOMETRIEAN
  6
VOLLINIE
 62
    18
 10
52.93839060806568
 20
1.499999999999997
 30
0.0
 11
52.78508041445637
 21
1.499999999999997
 31
0.0
  0
LINE
  5
91
  8
BLATTANSICHT_1_GEOMETRIEAN
  6
VOLLINIE
 62
    18
 10
53.08568294664395
 20
1.499999999999997
 30
0.0
 11
52.93839060806568
 21
1.499999999999997
 31
0.0
  0
LINE
  5
92
  8
BLATTANSICHT_1_GEOMETRIEAN
  6
VOLLINIE
 62
    18
 10
53.22604932395996
 20
1.499999999999986
 30
0.0
 11
53.08568294664395
 21
1.499999999999997
 31
0.0
  0
LINE
  5
93
  8
BLATTANSICHT_1_GEOMETRIEAN
  6
VOLLINIE
 62
    18
 10
53.35862433463615
 20
1.499999999999986
 30
0.0
 11
53.22604932395996
 21
1.499999999999986
 31
0.0
  0
LINE
  5
94
  8
BLATTANSICHT_1_GEOMETRIEAN
  6
VOLLINIE
 62
    18
 10
53.48259060966036
 20
1.499999999999986
 30
0.0
 11
53.35862433463615
 21
1.499999999999986
 31
0.0
  0
LINE
  5
95
  8
BLATTANSICHT_1_GEOMETRIEAN
  6
VOLLINIE
 62
    18
 10
53.57876661821878
 20
1.499999999999986
 30
0.0
 11
53.48259060966036
 21
1.499999999999986
 31
0.0
  0
LINE
  5
96
  8
BLATTANSICHT_1_GEOMETRIEAN
  6
VOLLINIE
 62
    18
 10
53.66802071557959
 20
1.499999999999986
 30
0.0
 11
53.57876661821878
 21
1.499999999999986
 31
0.0
  0
LINE
  5
97
  8
BLATTANSICHT_1_GEOMETRIEAN
  6
VOLLINIE
 62
    18
 10
53.74997070198236
 20
1.499999999999986
 30
0.0
 11
53.66802071557959
 21
1.499999999999986
 31
0.0
  0
LINE
  5
98
  8
BLATTANSICHT_1_GEOMETRIEAN
  6
VOLLINIE
 62
    18
 10
53.82426565541576
 20
1.499999999999986
 30
0.0
 11
53.74997070198236
 21
1.499999999999986
 31
0.0
  0
LINE
  5
99
  8
BLATTANSICHT_1_GEOMETRIEAN
  6
VOLLINIE
 62
    18
 10
53.89058743295283
 20
1.499999999999986
 30
0.0
 11
53.82426565541576
 21
1.499999999999986
 31
0.0
  0
LINE
  5
9A
  8
BLATTANSICHT_1_GEOMETRIEAN
  6
VOLLINIE
 62
    18
 10
53.94865203454727
 20
1.499999999999986
 30
0.0
 11
53.89058743295283
 21
1.499999999999986
 31
0.0
  0
LINE
  5
9B
  8
BLATTANSICHT_1_GEOMETRIEAN
  6
VOLLINIE
 62
    18
 10
53.99821081572462
 20
1.499999999999986
 30
0.0
 11
53.94865203454727
 21
1.499999999999986
 31
0.0
  0
LINE
  5
9C
  8
BLATTANSICHT_1_GEOMETRIEAN
  6
VOLLINIE
 62
    18
 10
54.03905156221745
 20
1.499999999999986
 30
0.0
 11
53.99821081572462
 21
1.499999999999986
 31
0.0
  0
LINE
  5
9D
  8
BLATTANSICHT_1_GEOMETRIEAN
  6
VOLLINIE
 62
    18
 10
54.07099938769387
 20
1.499999999999986
 30
0.0
 11
54.03905156221745
 21
1.499999999999986
 31
0.0
  0
LINE
  5
9E
  8
BLATTANSICHT_1_GEOMETRIEAN
  6
VOLLINIE
 62
    18
 10
54.09740821803854
 20
1.499999999999986
 30
0.0
 11
54.07099938769387
 21
1.499999999999986
 31
0.0
  0
LINE
  5
9F
  8
BLATTANSICHT_1_GEOMETRIEAN
  6
VOLLINIE
 62
    18
 10
54.1106534643082
 20
1.499999999999986
 30
0.0
 11
54.09740821803854
 21
1.499999999999986
 31
0.0
  0
LINE
  5
A0
  8
BLATTANSICHT_1_GEOMETRIEAN
  6
VOLLINIE
 62
    18
 10
52.38175523341807
 20
1.499999999999997
 30
0.0
 11
52.24294235267131
 21
1.499999999999997
 31
0.0
  0
LINE
  5
A1
  8
BLATTANSICHT_1_GEOMETRIEAN
  6
VOLLINIE
 62
    18
 10
52.24294235267131
 20
1.499999999999997
 30
0.0
 11
52.10292776551689
 21
1.499999999999997
 31
0.0
  0
LINE
  5
A2
  8
BLATTANSICHT_1_GEOMETRIEAN
  6
VOLLINIE
 62
    18
 10
52.10292776551689
 20
1.499999999999997
 30
0.0
 11
51.96231103592734
 21
1.499999999999997
 31
0.0
  0
LINE
  5
A3
  8
BLATTANSICHT_1_GEOMETRIEAN
  6
VOLLINIE
 62
    18
 10
59.56231103680927
 20
4.017118973489597
 30
0.0
 11
59.56231103680927
 21
4.099261556636066
 31
0.0
  0
LINE
  5
A4
  8
BLATTANSICHT_1_GEOMETRIEAN
  6
VOLLINIE
 62
    18
 10
59.56231103680927
 20
3.929044845548729
 30
0.0
 11
59.56231103680927
 21
4.017118973489597
 31
0.0
  0
LINE
  5
A5
  8
BLATTANSICHT_1_GEOMETRIEAN
  6
VOLLINIE
 62
    18
 10
59.56231103680927
 20
3.835599654269946
 30
0.0
 11
59.56231103680927
 21
3.929044845548729
 31
0.0
  0
LINE
  5
A6
  8
BLATTANSICHT_1_GEOMETRIEAN
  6
VOLLINIE
 62
    18
 10
59.56231103680927
 20
3.737217339600946
 30
0.0
 11
59.56231103680927
 21
3.835599654269946
 31
0.0
  0
LINE
  5
A7
  8
BLATTANSICHT_1_GEOMETRIEAN
  6
VOLLINIE
 62
    18
 10
59.56231103680927
 20
3.634332330077579
 30
0.0
 11
59.56231103680927
 21
3.737217339600946
 31
0.0
  0
LINE
  5
A8
  8
BLATTANSICHT_1_GEOMETRIEAN
  6
VOLLINIE
 62
    18
 10
59.56231103680927
 20
3.527417280698685
 30
0.0
 11
59.56231103680927
 21
3.634332330077579
 31
0.0
  0
LINE
  5
A9
  8
BLATTANSICHT_1_GEOMETRIEAN
  6
VOLLINIE
 62
    18
 10
59.56231103680927
 20
3.417514067169011
 30
0.0
 11
59.56231103680927
 21
3.527417280698685
 31
0.0
  0
LINE
  5
AA
  8
BLATTANSICHT_1_GEOMETRIEAN
  6
VOLLINIE
 62
    18
 10
59.56231103680927
 20
3.305324883123955
 30
0.0
 11
59.56231103680927
 21
3.417514067169011
 31
0.0
  0
LINE
  5
AB
  8
BLATTANSICHT_1_GEOMETRIEAN
  6
VOLLINIE
 62
    18
 10
59.56231103680927
 20
3.191358771556843
 30
0.0
 11
59.56231103680927
 21
3.305324883123955
 31
0.0
  0
LINE
  5
AC
  8
BLATTANSICHT_1_GEOMETRIEAN
  6
VOLLINIE
 62
    18
 10
59.56231103680927
 20
3.076124984328438
 30
0.0
 11
59.56231103680927
 21
3.191358771556843
 31
0.0
  0
LINE
  5
AD
  8
BLATTANSICHT_1_GEOMETRIEAN
  6
VOLLINIE
 62
    18
 10
59.56231103680927
 20
2.617359917417001
 30
0.0
 11
59.56231103680927
 21
2.730150672670744
 31
0.0
  0
LINE
  5
AE
  8
BLATTANSICHT_1_GEOMETRIEAN
  6
VOLLINIE
 62
    18
 10
59.56231103680927
 20
2.506722956361806
 30
0.0
 11
59.56231103680927
 21
2.617359917417001
 31
0.0
  0
LINE
  5
AF
  8
BLATTANSICHT_1_GEOMETRIEAN
  6
VOLLINIE
 62
    18
 10
59.56231103680927
 20
2.398765615404183
 30
0.0
 11
59.56231103680927
 21
2.506722956361806
 31
0.0
  0
LINE
  5
B0
  8
BLATTANSICHT_1_GEOMETRIEAN
  6
VOLLINIE
 62
    18
 10
59.56231103680927
 20
2.294514811445866
 30
0.0
 11
59.56231103680927
 21
2.398765615404183
 31
0.0
  0
LINE
  5
B1
  8
BLATTANSICHT_1_GEOMETRIEAN
  6
VOLLINIE
 62
    18
 10
59.56231103680927
 20
2.19465919337986
 30
0.0
 11
59.56231103680927
 21
2.294514811445866
 31
0.0
  0
LINE
  5
B2
  8
BLATTANSICHT_1_GEOMETRIEAN
  6
VOLLINIE
 62
    18
 10
59.56231103680927
 20
2.09962954716939
 30
0.0
 11
59.56231103680927
 21
2.19465919337986
 31
0.0
  0
LINE
  5
B3
  8
BLATTANSICHT_1_GEOMETRIEAN
  6
VOLLINIE
 62
    18
 10
59.56231103680927
 20
2.009856302803681
 30
0.0
 11
59.56231103680927
 21
2.09962954716939
 31
0.0
  0
LINE
  5
B4
  8
BLATTANSICHT_1_GEOMETRIEAN
  6
VOLLINIE
 62
    18
 10
59.56231103680927
 20
1.713831178117317
 30
0.0
 11
59.56231103680927
 21
1.777342374755995
 31
0.0
  0
LINE
  5
B5
  8
BLATTANSICHT_1_GEOMETRIEAN
  6
VOLLINIE
 62
    18
 10
59.56231103680927
 20
1.658050080207768
 30
0.0
 11
59.56231103680927
 21
1.713831178117317
 31
0.0
  0
LINE
  5
B6
  8
BLATTANSICHT_1_GEOMETRIEAN
  6
VOLLINIE
 62
    18
 10
59.56231103680927
 20
1.610296326733493
 30
0.0
 11
59.56231103680927
 21
1.658050080207768
 31
0.0
  0
LINE
  5
B7
  8
BLATTANSICHT_1_GEOMETRIEAN
  6
VOLLINIE
 62
    18
 10
59.56231103680927
 20
1.570819605300567
 30
0.0
 11
59.56231103680927
 21
1.610296326733493
 31
0.0
  0
LINE
  5
B8
  8
BLATTANSICHT_1_GEOMETRIEAN
  6
VOLLINIE
 62
    18
 10
59.56231103680927
 20
1.539951102742997
 30
0.0
 11
59.56231103680927
 21
1.570819605300567
 31
0.0
  0
LINE
  5
B9
  8
BLATTANSICHT_1_GEOMETRIEAN
  6
VOLLINIE
 62
    18
 10
59.56231103680927
 20
1.517806941855876
 30
0.0
 11
59.56231103680927
 21
1.539951102742997
 31
0.0
  0
LINE
  5
BA
  8
BLATTANSICHT_1_GEOMETRIEAN
  6
VOLLINIE
 62
    18
 10
59.56231103680927
 20
1.504464419599274
 30
0.0
 11
59.56231103680927
 21
1.517806941855876
 31
0.0
  0
LINE
  5
BB
  8
BLATTANSICHT_1_GEOMETRIEAN
  6
VOLLINIE
 62
    18
 10
59.56231103680927
 20
1.500000003298738
 30
0.0
 11
59.56231103680927
 21
1.504464419599274
 31
0.0
  0
LINE
  5
BC
  8
BLATTANSICHT_1_GEOMETRIEAN
  6
VOLLINIE
 62
    18
 10
59.56231103680927
 20
1.777342374755995
 30
0.0
 11
59.56231103680927
 21
1.848103251132243
 31
0.0
  0
LINE
  5
BD
  8
BLATTANSICHT_1_GEOMETRIEAN
  6
VOLLINIE
 62
    18
 10
59.56231103680927
 20
1.925776195445019
 30
0.0
 11
59.56231103680927
 21
2.009856302803681
 31
0.0
  0
LINE
  5
BE
  8
BLATTANSICHT_1_GEOMETRIEAN
  6
VOLLINIE
 62
    18
 10
59.56231103680927
 20
1.848103251132243
 30
0.0
 11
59.56231103680927
 21
1.925776195445019
 31
0.0
  0
LINE
  5
BF
  8
BLATTANSICHT_1_GEOMETRIEAN
  6
VOLLINIE
 62
    18
 10
59.56231103680927
 20
2.730150672670744
 30
0.0
 11
59.56231103680927
 21
2.844587373115036
 31
0.0
  0
LINE
  5
C0
  8
BLATTANSICHT_1_GEOMETRIEAN
  6
VOLLINIE
 62
    18
 10
59.56231103680927
 20
2.960162082020445
 30
0.0
 11
59.56231103680927
 21
3.076124984328438
 31
0.0
  0
LINE
  5
C1
  8
BLATTANSICHT_1_GEOMETRIEAN
  6
VOLLINIE
 62
    18
 10
59.56231103680927
 20
2.844587373115036
 30
0.0
 11
59.56231103680927
 21
2.960162082020445
 31
0.0
  0
LINE
  5
C2
  8
BLATTANSICHT_1_GEOMETRIEAN
  6
VOLLINIE
 62
    18
 10
59.56231103680927
 20
4.099261556636066
 30
0.0
 11
59.56231103680927
 21
4.174665185000003
 31
0.0
  0
LINE
  5
C3
  8
BLATTANSICHT_1_GEOMETRIEAN
  6
VOLLINIE
 62
    18
 10
44.36231103680927
 20
1.505515201253608
 30
0.0
 11
44.36231103680927
 21
1.499999996345794
 31
0.0
  0
LINE
  5
C4
  8
BLATTANSICHT_1_GEOMETRIEAN
  6
VOLLINIE
 62
    18
 10
44.36231103680927
 20
1.52202024629687
 30
0.0
 11
44.36231103680927
 21
1.505515201253608
 31
0.0
  0
LINE
  5
C5
  8
BLATTANSICHT_1_GEOMETRIEAN
  6
VOLLINIE
 62
    18
 10
44.36231103680927
 20
1.549393763626424
 30
0.0
 11
44.36231103680927
 21
1.52202024629687
 31
0.0
  0
LINE
  5
C6
  8
BLATTANSICHT_1_GEOMETRIEAN
  6
VOLLINIE
 62
    18
 10
44.36231103680927
 20
1.587434459338397
 30
0.0
 11
44.36231103680927
 21
1.549393763626424
 31
0.0
  0
LINE
  5
C7
  8
BLATTANSICHT_1_GEOMETRIEAN
  6
VOLLINIE
 62
    18
 10
44.36231103680927
 20
1.635862597363278
 30
0.0
 11
44.36231103680927
 21
1.587434459338397
 31
0.0
  0
LINE
  5
C8
  8
BLATTANSICHT_1_GEOMETRIEAN
  6
VOLLINIE
 62
    18
 10
44.36231103680927
 20
1.694322056533198
 30
0.0
 11
44.36231103680927
 21
1.635862597363278
 31
0.0
  0
LINE
  5
C9
  8
BLATTANSICHT_1_GEOMETRIEAN
  6
VOLLINIE
 62
    18
 10
44.36231103680927
 20
1.762382949354577
 30
0.0
 11
44.36231103680927
 21
1.694322056533198
 31
0.0
  0
LINE
  5
CA
  8
BLATTANSICHT_1_GEOMETRIEAN
  6
VOLLINIE
 62
    18
 10
44.36231103680927
 20
1.839544783228968
 30
0.0
 11
44.36231103680927
 21
1.762382949354577
 31
0.0
  0
LINE
  5
CB
  8
BLATTANSICHT_1_GEOMETRIEAN
  6
VOLLINIE
 62
    18
 10
44.36231103680927
 20
1.925240140875486
 30
0.0
 11
44.36231103680927
 21
1.839544783228968
 31
0.0
  0
LINE
  5
CC
  8
BLATTANSICHT_1_GEOMETRIEAN
  6
VOLLINIE
 62
    18
 10
44.36231103680927
 20
2.018838852890728
 30
0.0
 11
44.36231103680927
 21
1.925240140875486
 31
0.0
  0
LINE
  5
CD
  8
BLATTANSICHT_1_GEOMETRIEAN
  6
VOLLINIE
 62
    18
 10
44.36231103680927
 20
2.119652631762615
 30
0.0
 11
44.36231103680927
 21
2.018838852890728
 31
0.0
  0
LINE
  5
CE
  8
BLATTANSICHT_1_GEOMETRIEAN
  6
VOLLINIE
 62
    18
 10
44.36231103680927
 20
2.226940133261642
 30
0.0
 11
44.36231103680927
 21
2.119652631762615
 31
0.0
  0
LINE
  5
CF
  8
BLATTANSICHT_1_GEOMETRIEAN
  6
VOLLINIE
 62
    18
 10
44.36231103680927
 20
2.339912407989973
 30
0.0
 11
44.36231103680927
 21
2.226940133261642
 31
0.0
  0
LINE
  5
D0
  8
BLATTANSICHT_1_GEOMETRIEAN
  6
VOLLINIE
 62
    18
 10
44.36231103680927
 20
2.457738702999905
 30
0.0
 11
44.36231103680927
 21
2.339912407989973
 31
0.0
  0
LINE
  5
D1
  8
BLATTANSICHT_1_GEOMETRIEAN
  6
VOLLINIE
 62
    18
 10
44.36231103680927
 20
2.579552570819016
 30
0.0
 11
44.36231103680927
 21
2.457738702999905
 31
0.0
  0
LINE
  5
D2
  8
BLATTANSICHT_1_GEOMETRIEAN
  6
VOLLINIE
 62
    18
 10
44.36231103680927
 20
2.704458240958443
 30
0.0
 11
44.36231103680927
 21
2.579552570819016
 31
0.0
  0
LINE
  5
D3
  8
BLATTANSICHT_1_GEOMETRIEAN
  6
VOLLINIE
 62
    18
 10
44.36231103680927
 20
2.831537207051053
 30
0.0
 11
44.36231103680927
 21
2.704458240958443
 31
0.0
  0
LINE
  5
D4
  8
BLATTANSICHT_1_GEOMETRIEAN
  6
VOLLINIE
 62
    18
 10
44.36231103680927
 20
2.959854980921797
 30
0.0
 11
44.36231103680927
 21
2.831537207051053
 31
0.0
  0
LINE
  5
D5
  8
BLATTANSICHT_1_GEOMETRIEAN
  6
VOLLINIE
 62
    18
 10
44.36231103680927
 20
3.086132492749181
 30
0.0
 11
44.36231103680927
 21
2.959854980921797
 31
0.0
  0
LINE
  5
D6
  8
BLATTANSICHT_1_GEOMETRIEAN
  6
VOLLINIE
 62
    18
 10
44.36231103680927
 20
3.211799429662495
 30
0.0
 11
44.36231103680927
 21
3.086132492749181
 31
0.0
  0
LINE
  5
D7
  8
BLATTANSICHT_1_GEOMETRIEAN
  6
VOLLINIE
 62
    18
 10
44.36231103680927
 20
3.335964966119902
 30
0.0
 11
44.36231103680927
 21
3.211799429662495
 31
0.0
  0
LINE
  5
D8
  8
BLATTANSICHT_1_GEOMETRIEAN
  6
VOLLINIE
 62
    18
 10
44.36231103680927
 20
3.457748919425239
 30
0.0
 11
44.36231103680927
 21
3.335964966119902
 31
0.0
  0
LINE
  5
D9
  8
BLATTANSICHT_1_GEOMETRIEAN
  6
VOLLINIE
 62
    18
 10
44.36231103680927
 20
3.576287989411422
 30
0.0
 11
44.36231103680927
 21
3.457748919425239
 31
0.0
  0
LINE
  5
DA
  8
BLATTANSICHT_1_GEOMETRIEAN
  6
VOLLINIE
 62
    18
 10
44.36231103680927
 20
3.690741878189076
 30
0.0
 11
44.36231103680927
 21
3.576287989411422
 31
0.0
  0
LINE
  5
DB
  8
BLATTANSICHT_1_GEOMETRIEAN
  6
VOLLINIE
 62
    18
 10
44.36231103680927
 20
3.800299246836898
 30
0.0
 11
44.36231103680927
 21
3.690741878189076
 31
0.0
  0
LINE
  5
DC
  8
BLATTANSICHT_1_GEOMETRIEAN
  6
VOLLINIE
 62
    18
 10
44.36231103680927
 20
3.904183466808251
 30
0.0
 11
44.36231103680927
 21
3.800299246836898
 31
0.0
  0
LINE
  5
DD
  8
BLATTANSICHT_1_GEOMETRIEAN
  6
VOLLINIE
 62
    18
 10
44.36231103680927
 20
4.001658125283373
 30
0.0
 11
44.36231103680927
 21
3.904183466808251
 31
0.0
  0
LINE
  5
DE
  8
BLATTANSICHT_1_GEOMETRIEAN
  6
VOLLINIE
 62
    18
 10
44.36231103680927
 20
4.092032245440894
 30
0.0
 11
44.36231103680927
 21
4.001658125283373
 31
0.0
  0
LINE
  5
DF
  8
BLATTANSICHT_1_GEOMETRIEAN
  6
VOLLINIE
 62
    18
 10
44.36231103680927
 20
4.174665185000003
 30
0.0
 11
44.36231103680927
 21
4.092032245440894
 31
0.0
  0
LINE
  5
E0
  8
BLATTANSICHT_1_GEOMETRIEAN
  6
VOLLINIE
 62
    18
 10
59.56231103680927
 20
1.499999999422389
 30
0.0
 11
44.36231103680927
 21
1.499999996345794
 31
0.0
  0
LINE
  5
E1
  8
BLATTANSICHT_1_GEOMETRIEAN
  6
VOLLINIE
 62
    18
 10
59.56231103680927
 20
0.0000000032333736
 30
0.0
 11
59.56231103680927
 21
1.499999999422389
 31
0.0
  0
LINE
  5
E2
  8
BLATTANSICHT_1_GEOMETRIEAN
  6
VOLLINIE
 62
    18
 10
44.36231103680927
 20
1.499999996345794
 30
0.0
 11
44.36231103680927
 21
0.0
 31
0.0
  0
LINE
  5
E3
  8
BLATTANSICHT_1_GEOMETRIEAN
  6
VOLLINIE
 62
    18
 10
44.36231103680927
 20
0.0
 30
0.0
 11
59.56231103680927
 21
0.0000000032333736
 31
0.0
  0
LINE
  5
E4
  8
BLATTANSICHT_1_GEOMETRIEAN
  6
VOLLINIE
 62
    18
 10
49.82721385558001
 20
1.499999999999986
 30
0.0
 11
49.81396860931039
 21
1.499999999999986
 31
0.0
  0
LINE
  5
E5
  8
BLATTANSICHT_1_GEOMETRIEAN
  6
VOLLINIE
 62
    18
 10
49.85362268592472
 20
1.499999999999986
 30
0.0
 11
49.82721385558001
 21
1.499999999999986
 31
0.0
  0
LINE
  5
E6
  8
BLATTANSICHT_1_GEOMETRIEAN
  6
VOLLINIE
 62
    18
 10
49.88557051140109
 20
1.499999999999986
 30
0.0
 11
49.85362268592472
 21
1.499999999999986
 31
0.0
  0
LINE
  5
E7
  8
BLATTANSICHT_1_GEOMETRIEAN
  6
VOLLINIE
 62
    18
 10
49.92641125789392
 20
1.499999999999986
 30
0.0
 11
49.88557051140109
 21
1.499999999999986
 31
0.0
  0
LINE
  5
E8
  8
BLATTANSICHT_1_GEOMETRIEAN
  6
VOLLINIE
 62
    18
 10
49.97597003907128
 20
1.499999999999986
 30
0.0
 11
49.92641125789392
 21
1.499999999999986
 31
0.0
  0
LINE
  5
E9
  8
BLATTANSICHT_1_GEOMETRIEAN
  6
VOLLINIE
 62
    18
 10
50.03403464066571
 20
1.499999999999986
 30
0.0
 11
49.97597003907128
 21
1.499999999999986
 31
0.0
  0
LINE
  5
EA
  8
BLATTANSICHT_1_GEOMETRIEAN
  6
VOLLINIE
 62
    18
 10
50.10035641820282
 20
1.499999999999986
 30
0.0
 11
50.03403464066571
 21
1.499999999999986
 31
0.0
  0
LINE
  5
EB
  8
BLATTANSICHT_1_GEOMETRIEAN
  6
VOLLINIE
 62
    18
 10
50.17465137163618
 20
1.499999999999986
 30
0.0
 11
50.10035641820282
 21
1.499999999999986
 31
0.0
  0
LINE
  5
EC
  8
BLATTANSICHT_1_GEOMETRIEAN
  6
VOLLINIE
 62
    18
 10
50.25660135803896
 20
1.499999999999986
 30
0.0
 11
50.17465137163618
 21
1.499999999999986
 31
0.0
  0
LINE
  5
ED
  8
BLATTANSICHT_1_GEOMETRIEAN
  6
VOLLINIE
 62
    18
 10
50.34585545539976
 20
1.499999999999986
 30
0.0
 11
50.25660135803896
 21
1.499999999999986
 31
0.0
  0
LINE
  5
EE
  8
BLATTANSICHT_1_GEOMETRIEAN
  6
VOLLINIE
 62
    18
 10
50.44203146395819
 20
1.499999999999986
 30
0.0
 11
50.34585545539976
 21
1.499999999999986
 31
0.0
  0
LINE
  5
EF
  8
BLATTANSICHT_1_GEOMETRIEAN
  6
VOLLINIE
 62
    18
 10
50.56599773898239
 20
1.499999999999986
 30
0.0
 11
50.44203146395819
 21
1.499999999999986
 31
0.0
  0
LINE
  5
F0
  8
BLATTANSICHT_1_GEOMETRIEAN
  6
VOLLINIE
 62
    18
 10
50.69857274965859
 20
1.499999999999986
 30
0.0
 11
50.56599773898239
 21
1.499999999999986
 31
0.0
  0
LINE
  5
F1
  8
BLATTANSICHT_1_GEOMETRIEAN
  6
VOLLINIE
 62
    18
 10
50.83893912697464
 20
1.499999999999997
 30
0.0
 11
50.69857274965859
 21
1.499999999999986
 31
0.0
  0
LINE
  5
F2
  8
BLATTANSICHT_1_GEOMETRIEAN
  6
VOLLINIE
 62
    18
 10
50.98623146555286
 20
1.499999999999997
 30
0.0
 11
50.83893912697464
 21
1.499999999999997
 31
0.0
  0
LINE
  5
F3
  8
BLATTANSICHT_1_GEOMETRIEAN
  6
VOLLINIE
 62
    18
 10
51.13954165916217
 20
1.499999999999997
 30
0.0
 11
50.98623146555286
 21
1.499999999999997
 31
0.0
  0
LINE
  5
F4
  8
BLATTANSICHT_1_GEOMETRIEAN
  6
VOLLINIE
 62
    18
 10
51.27121618635609
 20
1.499999999999997
 30
0.0
 11
51.13954165916217
 21
1.499999999999997
 31
0.0
  0
LINE
  5
F5
  8
BLATTANSICHT_1_GEOMETRIEAN
  6
VOLLINIE
 62
    18
 10
51.40585008770799
 20
1.499999999999997
 30
0.0
 11
51.27121618635609
 21
1.499999999999997
 31
0.0
  0
LINE
  5
F6
  8
BLATTANSICHT_1_GEOMETRIEAN
  6
VOLLINIE
 62
    18
 10
51.54286684020052
 20
1.499999999999997
 30
0.0
 11
51.40585008770799
 21
1.499999999999997
 31
0.0
  0
LINE
  5
F7
  8
BLATTANSICHT_1_GEOMETRIEAN
  6
VOLLINIE
 62
    18
 10
51.68167972036433
 20
1.499999999999997
 30
0.0
 11
51.54286684020052
 21
1.499999999999997
 31
0.0
  0
LINE
  5
F8
  8
BLATTANSICHT_1_GEOMETRIEAN
  6
VOLLINIE
 62
    18
 10
51.82169430692828
 20
1.499999999999997
 30
0.0
 11
51.68167972036433
 21
1.499999999999997
 31
0.0
  0
LINE
  5
F9
  8
BLATTANSICHT_1_GEOMETRIEAN
  6
VOLLINIE
 62
    18
 10
51.96231103592734
 20
1.499999999999997
 30
0.0
 11
51.82169430692828
 21
1.499999999999997
 31
0.0
  0
LINE
  5
FA
  8
BLATTANSICHT_1_GEOMETRIEAN
  6
VOLLINIE
 62
    18
 10
44.36231103680927
 20
7.125334815
 30
0.0
 11
44.36231103680927
 21
4.174665185000003
 31
0.0
  0
LINE
  5
FB
  8
BLATTANSICHT_1_GEOMETRIEAN
  6
VOLLINIE
 62
    18
 10
44.36231103680927
 20
4.174665185000003
 30
0.0
 11
59.56231103680927
 21
4.174665185000003
 31
0.0
  0
LINE
  5
FC
  8
BLATTANSICHT_1_GEOMETRIEAN
  6
VOLLINIE
 62
    18
 10
59.56231103680927
 20
4.174665185000003
 30
0.0
 11
59.56231103680927
 21
7.125334815
 31
0.0
  0
LINE
  5
FD
  8
BLATTANSICHT_1_GEOMETRIEAN
  6
VOLLINIE
 62
    18
 10
59.56231103680927
 20
8.299999999999995
 30
0.0
 11
44.36231103680927
 21
8.299999999999995
 31
0.0
  0
LINE
  5
FE
  8
BLATTANSICHT_1_GEOMETRIEAN
  6
VOLLINIE
 62
    18
 10
59.56231103680927
 20
7.125334815
 30
0.0
 11
59.56231103680927
 21
8.299999999999995
 31
0.0
  0
LINE
  5
FF
  8
BLATTANSICHT_1_GEOMETRIEAN
  6
VOLLINIE
 62
    18
 10
44.36231103680927
 20
8.299999999999995
 30
0.0
 11
44.36231103680927
 21
7.125334815
 31
0.0
  0
LINE
  5
100
  8
BLATTANSICHT_1_GEOMETRIEAN
  6
VOLLINIE
 62
    18
 10
44.36231103680927
 20
7.125334815
 30
0.0
 11
59.56231103680927
 21
7.125334815
 31
0.0
  0
LINE
  5
101
  8
BLATTANSICHT_1_GEOMETRIEAN
  6
VOLLINIE
 62
    18
 10
-17.2243760953125
 20
1.499999999999997
 30
0.0
 11
-17.25744569224999
 21
1.499999999999997
 31
0.0
  0
LINE
  5
102
  8
BLATTANSICHT_1_GEOMETRIEAN
  6
VOLLINIE
 62
    18
 10
-17.186340991
 20
1.499999999999997
 30
0.0
 11
-17.2243760953125
 21
1.499999999999997
 31
0.0
  0
LINE
  5
103
  8
BLATTANSICHT_1_GEOMETRIEAN
  6
VOLLINIE
 62
    18
 10
-17.044194358375
 20
1.499999999999997
 30
0.0
 11
-17.09615280449999
 21
1.499999999999997
 31
0.0
  0
LINE
  5
104
  8
BLATTANSICHT_1_GEOMETRIEAN
  6
VOLLINIE
 62
    18
 10
-16.987659677
 20
1.499999999999997
 30
0.0
 11
-17.044194358375
 21
1.499999999999997
 31
0.0
  0
LINE
  5
105
  8
BLATTANSICHT_1_GEOMETRIEAN
  6
VOLLINIE
 62
    18
 10
-17.143535015375
 20
1.499999999999997
 30
0.0
 11
-17.186340991
 21
1.499999999999997
 31
0.0
  0
LINE
  5
106
  8
BLATTANSICHT_1_GEOMETRIEAN
  6
VOLLINIE
 62
    18
 10
-17.09615280449999
 20
1.499999999999997
 30
0.0
 11
-17.143535015375
 21
1.499999999999997
 31
0.0
  0
LINE
  5
107
  8
BLATTANSICHT_1_GEOMETRIEAN
  6
VOLLINIE
 62
    18
 10
-17.25744569224999
 20
1.499999999999997
 30
0.0
 11
-17.2855497818125
 21
1.499999999999997
 31
0.0
  0
LINE
  5
108
  8
BLATTANSICHT_1_GEOMETRIEAN
  6
VOLLINIE
 62
    18
 10
-17.2855497818125
 20
1.499999999999997
 30
0.0
 11
-17.30868836399999
 21
1.499999999999997
 31
0.0
  0
LINE
  5
109
  8
BLATTANSICHT_1_GEOMETRIEAN
  6
VOLLINIE
 62
    18
 10
-16.9268313125
 20
1.499999999999997
 30
0.0
 11
-16.987659677
 21
1.499999999999997
 31
0.0
  0
LINE
  5
10A
  8
BLATTANSICHT_1_GEOMETRIEAN
  6
VOLLINIE
 62
    18
 10
-16.720279571
 20
1.499999999999997
 30
0.0
 11
-16.7931412595
 21
1.499999999999997
 31
0.0
  0
LINE
  5
10B
  8
BLATTANSICHT_1_GEOMETRIEAN
  6
VOLLINIE
 62
    18
 10
-16.86199183999999
 20
1.499999999999997
 30
0.0
 11
-16.9268313125
 21
1.499999999999997
 31
0.0
  0
LINE
  5
10C
  8
BLATTANSICHT_1_GEOMETRIEAN
  6
VOLLINIE
 62
    18
 10
-16.7931412595
 20
1.499999999999997
 30
0.0
 11
-16.86199183999999
 21
1.499999999999997
 31
0.0
  0
LINE
  5
10D
  8
BLATTANSICHT_1_GEOMETRIEAN
  6
VOLLINIE
 62
    18
 10
-16.6437664240625
 20
1.499999999999997
 30
0.0
 11
-16.720279571
 21
1.499999999999997
 31
0.0
  0
LINE
  5
10E
  8
BLATTANSICHT_1_GEOMETRIEAN
  6
VOLLINIE
 62
    18
 10
-16.56396144525
 20
1.499999999999997
 30
0.0
 11
-16.6437664240625
 21
1.499999999999997
 31
0.0
  0
LINE
  5
10F
  8
BLATTANSICHT_1_GEOMETRIEAN
  6
VOLLINIE
 62
    18
 10
-16.30521841856249
 20
1.499999999999997
 30
0.0
 11
-16.394475992
 21
1.499999999999997
 31
0.0
  0
LINE
  5
110
  8
BLATTANSICHT_1_GEOMETRIEAN
  6
VOLLINIE
 62
    18
 10
-16.21351479225
 20
1.499999999999997
 30
0.0
 11
-16.30521841856249
 21
1.499999999999997
 31
0.0
  0
LINE
  5
111
  8
BLATTANSICHT_1_GEOMETRIEAN
  6
VOLLINIE
 62
    18
 10
-16.1193651130625
 20
1.499999999999997
 30
0.0
 11
-16.21351479225
 21
1.499999999999997
 31
0.0
  0
LINE
  5
112
  8
BLATTANSICHT_1_GEOMETRIEAN
  6
VOLLINIE
 62
    18
 10
-16.022769381
 20
1.499999999999997
 30
0.0
 11
-16.1193651130625
 21
1.499999999999997
 31
0.0
  0
LINE
  5
113
  8
BLATTANSICHT_1_GEOMETRIEAN
  6
VOLLINIE
 62
    18
 10
-16.48086463456249
 20
1.499999999999997
 30
0.0
 11
-16.56396144525
 21
1.499999999999997
 31
0.0
  0
LINE
  5
114
  8
BLATTANSICHT_1_GEOMETRIEAN
  6
VOLLINIE
 62
    18
 10
-16.394475992
 20
1.499999999999997
 30
0.0
 11
-16.48086463456249
 21
1.499999999999997
 31
0.0
  0
LINE
  5
115
  8
BLATTANSICHT_1_GEOMETRIEAN
  6
VOLLINIE
 62
    18
 10
-15.82411932399999
 20
1.499999999999997
 30
0.0
 11
-15.9241974875
 21
1.499999999999997
 31
0.0
  0
LINE
  5
116
  8
BLATTANSICHT_1_GEOMETRIEAN
  6
VOLLINIE
 62
    18
 10
-15.7225348905
 20
1.499999999999997
 30
0.0
 11
-15.82411932399999
 21
1.499999999999997
 31
0.0
  0
LINE
  5
117
  8
BLATTANSICHT_1_GEOMETRIEAN
  6
VOLLINIE
 62
    18
 10
-15.61944418699999
 20
1.499999999999997
 30
0.0
 11
-15.7225348905
 21
1.499999999999997
 31
0.0
  0
LINE
  5
118
  8
BLATTANSICHT_1_GEOMETRIEAN
  6
VOLLINIE
 62
    18
 10
-15.9241974875
 20
1.499999999999997
 30
0.0
 11
-16.022769381
 21
1.499999999999997
 31
0.0
  0
LINE
  5
119
  8
BLATTANSICHT_1_GEOMETRIEAN
  6
VOLLINIE
 62
    18
 10
-15.305623950125
 20
1.499999999999997
 30
0.0
 11
-15.4107393005
 21
1.499999999999997
 31
0.0
  0
LINE
  5
11A
  8
BLATTANSICHT_1_GEOMETRIEAN
  6
VOLLINIE
 62
    18
 10
-15.199999995
 20
1.499999999999997
 30
0.0
 11
-15.305623950125
 21
1.499999999999997
 31
0.0
  0
LINE
  5
11B
  8
BLATTANSICHT_1_GEOMETRIEAN
  6
VOLLINIE
 62
    18
 10
-15.09437603987499
 20
1.499999999999997
 30
0.0
 11
-15.199999995
 21
1.499999999999997
 31
0.0
  0
LINE
  5
11C
  8
BLATTANSICHT_1_GEOMETRIEAN
  6
VOLLINIE
 62
    18
 10
-14.780555803
 20
1.499999999999997
 30
0.0
 11
-14.88465394387499
 21
1.499999999999997
 31
0.0
  0
LINE
  5
11D
  8
BLATTANSICHT_1_GEOMETRIEAN
  6
VOLLINIE
 62
    18
 10
-14.9892606895
 20
1.499999999999997
 30
0.0
 11
-15.09437603987499
 21
1.499999999999997
 31
0.0
  0
LINE
  5
11E
  8
BLATTANSICHT_1_GEOMETRIEAN
  6
VOLLINIE
 62
    18
 10
-14.88465394387499
 20
1.499999999999997
 30
0.0
 11
-14.9892606895
 21
1.499999999999997
 31
0.0
  0
LINE
  5
11F
  8
BLATTANSICHT_1_GEOMETRIEAN
  6
VOLLINIE
 62
    18
 10
-15.515346046125
 20
1.499999999999997
 30
0.0
 11
-15.61944418699999
 21
1.499999999999997
 31
0.0
  0
LINE
  5
120
  8
BLATTANSICHT_1_GEOMETRIEAN
  6
VOLLINIE
 62
    18
 10
-15.4107393005
 20
1.499999999999997
 30
0.0
 11
-15.515346046125
 21
1.499999999999997
 31
0.0
  0
LINE
  5
121
  8
BLATTANSICHT_1_GEOMETRIEAN
  6
VOLLINIE
 62
    18
 10
-14.6774650995
 20
1.499999999999997
 30
0.0
 11
-14.780555803
 21
1.499999999999997
 31
0.0
  0
LINE
  5
122
  8
BLATTANSICHT_1_GEOMETRIEAN
  6
VOLLINIE
 62
    18
 10
-14.575880666
 20
1.499999999999997
 30
0.0
 11
-14.6774650995
 21
1.499999999999997
 31
0.0
  0
LINE
  5
123
  8
BLATTANSICHT_1_GEOMETRIEAN
  6
VOLLINIE
 62
    18
 10
-14.4758025025
 20
1.499999999999997
 30
0.0
 11
-14.575880666
 21
1.499999999999997
 31
0.0
  0
LINE
  5
124
  8
BLATTANSICHT_1_GEOMETRIEAN
  6
VOLLINIE
 62
    18
 10
-14.37723060899999
 20
1.499999999999997
 30
0.0
 11
-14.4758025025
 21
1.499999999999997
 31
0.0
  0
LINE
  5
125
  8
BLATTANSICHT_1_GEOMETRIEAN
  6
VOLLINIE
 62
    18
 10
-14.2806348855625
 20
1.499999999999997
 30
0.0
 11
-14.37723060899999
 21
1.499999999999997
 31
0.0
  0
LINE
  5
126
  8
BLATTANSICHT_1_GEOMETRIEAN
  6
VOLLINIE
 62
    18
 10
-14.18648520925
 20
1.499999999999997
 30
0.0
 11
-14.2806348855625
 21
1.499999999999997
 31
0.0
  0
LINE
  5
127
  8
BLATTANSICHT_1_GEOMETRIEAN
  6
VOLLINIE
 62
    18
 10
-14.0947815800625
 20
1.499999999999997
 30
0.0
 11
-14.18648520925
 21
1.499999999999997
 31
0.0
  0
LINE
  5
128
  8
BLATTANSICHT_1_GEOMETRIEAN
  6
VOLLINIE
 62
    18
 10
-14.005523998
 20
1.499999999999997
 30
0.0
 11
-14.0947815800625
 21
1.499999999999997
 31
0.0
  0
LINE
  5
129
  8
BLATTANSICHT_1_GEOMETRIEAN
  6
VOLLINIE
 62
    18
 10
-13.83603854475
 20
1.499999999999997
 30
0.0
 11
-13.9191353554375
 21
1.499999999999997
 31
0.0
  0
LINE
  5
12A
  8
BLATTANSICHT_1_GEOMETRIEAN
  6
VOLLINIE
 62
    18
 10
-13.7562335659375
 20
1.499999999999997
 30
0.0
 11
-13.83603854475
 21
1.499999999999997
 31
0.0
  0
LINE
  5
12B
  8
BLATTANSICHT_1_GEOMETRIEAN
  6
VOLLINIE
 62
    18
 10
-13.679720419
 20
1.499999999999997
 30
0.0
 11
-13.7562335659375
 21
1.499999999999997
 31
0.0
  0
LINE
  5
12C
  8
BLATTANSICHT_1_GEOMETRIEAN
  6
VOLLINIE
 62
    18
 10
-13.4731686990625
 20
1.499999999999997
 30
0.0
 11
-13.53800816724999
 21
1.499999999999997
 31
0.0
  0
LINE
  5
12D
  8
BLATTANSICHT_1_GEOMETRIEAN
  6
VOLLINIE
 62
    18
 10
-13.412340336
 20
1.499999999999997
 30
0.0
 11
-13.4731686990625
 21
1.499999999999997
 31
0.0
  0
LINE
  5
12E
  8
BLATTANSICHT_1_GEOMETRIEAN
  6
VOLLINIE
 62
    18
 10
-13.35580564456249
 20
1.499999999999997
 30
0.0
 11
-13.412340336
 21
1.499999999999997
 31
0.0
  0
LINE
  5
12F
  8
BLATTANSICHT_1_GEOMETRIEAN
  6
VOLLINIE
 62
    18
 10
-13.213658999
 20
1.499999999999997
 30
0.0
 11
-13.2564649760625
 21
1.499999999999997
 31
0.0
  0
LINE
  5
130
  8
BLATTANSICHT_1_GEOMETRIEAN
  6
VOLLINIE
 62
    18
 10
-13.175623896125
 20
1.499999999999997
 30
0.0
 11
-13.213658999
 21
1.499999999999997
 31
0.0
  0
LINE
  5
131
  8
BLATTANSICHT_1_GEOMETRIEAN
  6
VOLLINIE
 62
    18
 10
-13.14255430349999
 20
1.499999999999997
 30
0.0
 11
-13.175623896125
 21
1.499999999999997
 31
0.0
  0
LINE
  5
132
  8
BLATTANSICHT_1_GEOMETRIEAN
  6
VOLLINIE
 62
    18
 10
-13.11445022112499
 20
1.499999999999997
 30
0.0
 11
-13.14255430349999
 21
1.499999999999997
 31
0.0
  0
LINE
  5
133
  8
BLATTANSICHT_1_GEOMETRIEAN
  6
VOLLINIE
 62
    18
 10
-13.09131164899999
 20
1.499999999999997
 30
0.0
 11
-13.11445022112499
 21
1.499999999999997
 31
0.0
  0
LINE
  5
134
  8
BLATTANSICHT_1_GEOMETRIEAN
  6
VOLLINIE
 62
    18
 10
-13.30384719124999
 20
1.499999999999997
 30
0.0
 11
-13.35580564456249
 21
1.499999999999997
 31
0.0
  0
LINE
  5
135
  8
BLATTANSICHT_1_GEOMETRIEAN
  6
VOLLINIE
 62
    18
 10
-13.2564649760625
 20
1.499999999999997
 30
0.0
 11
-13.30384719124999
 21
1.499999999999997
 31
0.0
  0
LINE
  5
136
  8
BLATTANSICHT_1_GEOMETRIEAN
  6
VOLLINIE
 62
    18
 10
-13.60685874056251
 20
1.499999999999997
 30
0.0
 11
-13.679720419
 21
1.499999999999997
 31
0.0
  0
LINE
  5
137
  8
BLATTANSICHT_1_GEOMETRIEAN
  6
VOLLINIE
 62
    18
 10
-13.53800816724999
 20
1.499999999999997
 30
0.0
 11
-13.60685874056251
 21
1.499999999999997
 31
0.0
  0
LINE
  5
138
  8
BLATTANSICHT_1_GEOMETRIEAN
  6
VOLLINIE
 62
    18
 10
-13.9191353554375
 20
1.499999999999997
 30
0.0
 11
-14.005523998
 21
1.499999999999997
 31
0.0
  0
LINE
  5
139
  8
BLATTANSICHT_1_GEOMETRIEAN
  6
VOLLINIE
 62
    18
 10
-13.07323779906251
 20
1.499999999999997
 30
0.0
 11
-13.09131164899999
 21
1.499999999999997
 31
0.0
  0
LINE
  5
13A
  8
BLATTANSICHT_1_GEOMETRIEAN
  6
VOLLINIE
 62
    18
 10
-13.06032790625001
 20
1.499999999999997
 30
0.0
 11
-13.07323779906251
 21
1.499999999999997
 31
0.0
  0
LINE
  5
13B
  8
BLATTANSICHT_1_GEOMETRIEAN
  6
VOLLINIE
 62
    18
 10
-13.0525819705625
 20
1.499999999999997
 30
0.0
 11
-13.06032790625001
 21
1.499999999999997
 31
0.0
  0
LINE
  5
13C
  8
BLATTANSICHT_1_GEOMETRIEAN
  6
VOLLINIE
 62
    18
 10
-13.05
 20
1.499999999999997
 30
0.0
 11
-13.0525819705625
 21
1.499999999999997
 31
0.0
  0
LINE
  5
13D
  8
BLATTANSICHT_1_GEOMETRIEAN
  6
VOLLINIE
 62
    18
 10
-17.30868836399999
 20
1.499999999999997
 30
0.0
 11
-17.326762203875
 21
1.499999999999997
 31
0.0
  0
LINE
  5
13E
  8
BLATTANSICHT_1_GEOMETRIEAN
  6
VOLLINIE
 62
    18
 10
-17.326762203875
 20
1.499999999999997
 30
0.0
 11
-17.3396720895
 21
1.499999999999997
 31
0.0
  0
LINE
  5
13F
  8
BLATTANSICHT_1_GEOMETRIEAN
  6
VOLLINIE
 62
    18
 10
-17.3396720895
 20
1.499999999999997
 30
0.0
 11
-17.347418020875
 21
1.499999999999997
 31
0.0
  0
LINE
  5
140
  8
BLATTANSICHT_1_GEOMETRIEAN
  6
VOLLINIE
 62
    18
 10
-17.347418020875
 20
1.499999999999997
 30
0.0
 11
-17.35
 21
1.499999999999997
 31
0.0
  0
LINE
  5
141
  8
BLATTANSICHT_1_GEOMETRIEAN
  6
VOLLINIE
 62
    18
 10
-7.27674052595053
 20
1.499999999999997
 30
0.0
 11
-7.308688352016769
 21
1.499999999999997
 31
0.0
  0
LINE
  5
142
  8
BLATTANSICHT_1_GEOMETRIEAN
  6
VOLLINIE
 62
    18
 10
-7.235899778397029
 20
1.499999999999997
 30
0.0
 11
-7.27674052595053
 21
1.499999999999997
 31
0.0
  0
LINE
  5
143
  8
BLATTANSICHT_1_GEOMETRIEAN
  6
VOLLINIE
 62
    18
 10
-7.186340995701948
 20
1.499999999999997
 30
0.0
 11
-7.235899778397029
 21
1.499999999999997
 31
0.0
  0
LINE
  5
144
  8
BLATTANSICHT_1_GEOMETRIEAN
  6
VOLLINIE
 62
    18
 10
-7.115664028627123
 20
1.499999999999997
 30
0.0
 11
-7.186340995701948
 21
1.499999999999997
 31
0.0
  0
LINE
  5
145
  8
BLATTANSICHT_1_GEOMETRIEAN
  6
VOLLINIE
 62
    18
 10
-7.033176355999184
 20
1.499999999999997
 30
0.0
 11
-7.115664028627123
 21
1.499999999999997
 31
0.0
  0
LINE
  5
146
  8
BLATTANSICHT_1_GEOMETRIEAN
  6
VOLLINIE
 62
    18
 10
-6.939386541740932
 20
1.499999999999986
 30
0.0
 11
-7.033176355999184
 21
1.499999999999997
 31
0.0
  0
LINE
  5
147
  8
BLATTANSICHT_1_GEOMETRIEAN
  6
VOLLINIE
 62
    18
 10
-6.834872831235442
 20
1.499999999999986
 30
0.0
 11
-6.939386541740932
 21
1.499999999999986
 31
0.0
  0
LINE
  5
148
  8
BLATTANSICHT_1_GEOMETRIEAN
  6
VOLLINIE
 62
    18
 10
-6.720279586251072
 20
1.499999999999986
 30
0.0
 11
-6.834872831235442
 21
1.499999999999986
 31
0.0
  0
LINE
  5
149
  8
BLATTANSICHT_1_GEOMETRIEAN
  6
VOLLINIE
 62
    18
 10
-6.617593507790597
 20
1.499999999999986
 30
0.0
 11
-6.720279586251072
 21
1.499999999999986
 31
0.0
  0
LINE
  5
14A
  8
BLATTANSICHT_1_GEOMETRIEAN
  6
VOLLINIE
 62
    18
 10
-6.508837076090543
 20
1.499999999999986
 30
0.0
 11
-6.617593507790597
 21
1.499999999999986
 31
0.0
  0
LINE
  5
14B
  8
BLATTANSICHT_1_GEOMETRIEAN
  6
VOLLINIE
 62
    18
 10
-6.394476002903872
 20
1.499999999999986
 30
0.0
 11
-6.508837076090543
 21
1.499999999999986
 31
0.0
  0
LINE
  5
14C
  8
BLATTANSICHT_1_GEOMETRIEAN
  6
VOLLINIE
 62
    18
 10
-6.274999999186084
 20
1.499999999999986
 30
0.0
 11
-6.394476002903872
 21
1.499999999999986
 31
0.0
  0
LINE
  5
14D
  8
BLATTANSICHT_1_GEOMETRIEAN
  6
VOLLINIE
 62
    18
 10
-6.150920680222929
 20
1.499999999999986
 30
0.0
 11
-6.274999999186084
 21
1.499999999999986
 31
0.0
  0
LINE
  5
14E
  8
BLATTANSICHT_1_GEOMETRIEAN
  6
VOLLINIE
 62
    18
 10
-6.022769372731672
 20
1.499999999999986
 30
0.0
 11
-6.150920680222929
 21
1.499999999999986
 31
0.0
  0
LINE
  5
14F
  8
BLATTANSICHT_1_GEOMETRIEAN
  6
VOLLINIE
 62
    18
 10
-5.891094848926302
 20
1.499999999999986
 30
0.0
 11
-6.022769372731672
 21
1.499999999999986
 31
0.0
  0
LINE
  5
150
  8
BLATTANSICHT_1_GEOMETRIEAN
  6
VOLLINIE
 62
    18
 10
-5.756460951125411
 20
1.499999999999986
 30
0.0
 11
-5.891094848926302
 21
1.499999999999986
 31
0.0
  0
LINE
  5
151
  8
BLATTANSICHT_1_GEOMETRIEAN
  6
VOLLINIE
 62
    18
 10
-5.619444202300744
 20
1.499999999999986
 30
0.0
 11
-5.756460951125411
 21
1.499999999999986
 31
0.0
  0
LINE
  5
152
  8
BLATTANSICHT_1_GEOMETRIEAN
  6
VOLLINIE
 62
    18
 10
-5.452705414874419
 20
1.499999999999986
 30
0.0
 11
-5.619444202300744
 21
1.499999999999986
 31
0.0
  0
LINE
  5
153
  8
BLATTANSICHT_1_GEOMETRIEAN
  6
VOLLINIE
 62
    18
 10
-5.284408614536948
 20
1.499999999999986
 30
0.0
 11
-5.452705414874419
 21
1.499999999999986
 31
0.0
  0
LINE
  5
154
  8
BLATTANSICHT_1_GEOMETRIEAN
  6
VOLLINIE
 62
    18
 10
-5.115591407023696
 20
1.499999999999986
 30
0.0
 11
-5.284408614536948
 21
1.499999999999986
 31
0.0
  0
LINE
  5
155
  8
BLATTANSICHT_1_GEOMETRIEAN
  6
VOLLINIE
 62
    18
 10
-4.947294606553291
 20
1.499999999999986
 30
0.0
 11
-5.115591407023696
 21
1.499999999999986
 31
0.0
  0
LINE
  5
156
  8
BLATTANSICHT_1_GEOMETRIEAN
  6
VOLLINIE
 62
    18
 10
-4.780555818861935
 20
1.499999999999986
 30
0.0
 11
-4.947294606553291
 21
1.499999999999986
 31
0.0
  0
LINE
  5
157
  8
BLATTANSICHT_1_GEOMETRIEAN
  6
VOLLINIE
 62
    18
 10
-4.643539062471828
 20
1.499999999999986
 30
0.0
 11
-4.780555818861935
 21
1.499999999999986
 31
0.0
  0
LINE
  5
158
  8
BLATTANSICHT_1_GEOMETRIEAN
  6
VOLLINIE
 62
    18
 10
-4.50890515730118
 20
1.499999999999986
 30
0.0
 11
-4.643539062471828
 21
1.499999999999986
 31
0.0
  0
LINE
  5
159
  8
BLATTANSICHT_1_GEOMETRIEAN
  6
VOLLINIE
 62
    18
 10
-4.377230626414772
 20
1.499999999999986
 30
0.0
 11
-4.50890515730118
 21
1.499999999999986
 31
0.0
  0
LINE
  5
15A
  8
BLATTANSICHT_1_GEOMETRIEAN
  6
VOLLINIE
 62
    18
 10
-4.249079318976092
 20
1.499999999999986
 30
0.0
 11
-4.377230626414772
 21
1.499999999999986
 31
0.0
  0
LINE
  5
15B
  8
BLATTANSICHT_1_GEOMETRIEAN
  6
VOLLINIE
 62
    18
 10
-4.125000000067169
 20
1.499999999999986
 30
0.0
 11
-4.249079318976092
 21
1.499999999999986
 31
0.0
  0
LINE
  5
15C
  8
BLATTANSICHT_1_GEOMETRIEAN
  6
VOLLINIE
 62
    18
 10
-4.005523996404788
 20
1.499999999999986
 30
0.0
 11
-4.125000000067169
 21
1.499999999999986
 31
0.0
  0
LINE
  5
15D
  8
BLATTANSICHT_1_GEOMETRIEAN
  6
VOLLINIE
 62
    18
 10
-3.891162923282696
 20
1.499999999999986
 30
0.0
 11
-4.005523996404788
 21
1.499999999999986
 31
0.0
  0
LINE
  5
15E
  8
BLATTANSICHT_1_GEOMETRIEAN
  6
VOLLINIE
 62
    18
 10
-3.782406491646609
 20
1.499999999999986
 30
0.0
 11
-3.891162923282696
 21
1.499999999999986
 31
0.0
  0
LINE
  5
15F
  8
BLATTANSICHT_1_GEOMETRIEAN
  6
VOLLINIE
 62
    18
 10
-3.679720413248928
 20
1.499999999999986
 30
0.0
 11
-3.782406491646609
 21
1.499999999999986
 31
0.0
  0
LINE
  5
160
  8
BLATTANSICHT_1_GEOMETRIEAN
  6
VOLLINIE
 62
    18
 10
-3.565127168347466
 20
1.499999999999986
 30
0.0
 11
-3.679720413248928
 21
1.499999999999986
 31
0.0
  0
LINE
  5
161
  8
BLATTANSICHT_1_GEOMETRIEAN
  6
VOLLINIE
 62
    18
 10
-3.460613457919717
 20
1.499999999999986
 30
0.0
 11
-3.565127168347466
 21
1.499999999999986
 31
0.0
  0
LINE
  5
162
  8
BLATTANSICHT_1_GEOMETRIEAN
  6
VOLLINIE
 62
    18
 10
-3.366823643733059
 20
1.499999999999997
 30
0.0
 11
-3.460613457919717
 21
1.499999999999986
 31
0.0
  0
LINE
  5
163
  8
BLATTANSICHT_1_GEOMETRIEAN
  6
VOLLINIE
 62
    18
 10
-3.284335971169686
 20
1.499999999999997
 30
0.0
 11
-3.366823643733059
 21
1.499999999999997
 31
0.0
  0
LINE
  5
164
  8
BLATTANSICHT_1_GEOMETRIEAN
  6
VOLLINIE
 62
    18
 10
-3.213659004151609
 20
1.499999999999997
 30
0.0
 11
-3.284335971169686
 21
1.499999999999997
 31
0.0
  0
LINE
  5
165
  8
BLATTANSICHT_1_GEOMETRIEAN
  6
VOLLINIE
 62
    18
 10
-3.164100221500057
 20
1.499999999999997
 30
0.0
 11
-3.213659004151609
 21
1.499999999999997
 31
0.0
  0
LINE
  5
166
  8
BLATTANSICHT_1_GEOMETRIEAN
  6
VOLLINIE
 62
    18
 10
-3.123259473982797
 20
1.499999999999997
 30
0.0
 11
-3.164100221500057
 21
1.499999999999997
 31
0.0
  0
LINE
  5
167
  8
BLATTANSICHT_1_GEOMETRIEAN
  6
VOLLINIE
 62
    18
 10
-3.091311647945165
 20
1.499999999999997
 30
0.0
 11
-3.123259473982797
 21
1.499999999999997
 31
0.0
  0
LINE
  5
168
  8
BLATTANSICHT_1_GEOMETRIEAN
  6
VOLLINIE
 62
    18
 10
-3.068393548408539
 20
1.499999999999997
 30
0.0
 11
-3.091311647945165
 21
1.499999999999997
 31
0.0
  0
LINE
  5
169
  8
BLATTANSICHT_1_GEOMETRIEAN
  6
VOLLINIE
 62
    18
 10
-3.054603315127758
 20
1.499999999999997
 30
0.0
 11
-3.068393548408539
 21
1.499999999999997
 31
0.0
  0
LINE
  5
16A
  8
BLATTANSICHT_1_GEOMETRIEAN
  6
VOLLINIE
 62
    18
 10
-3.049999999999994
 20
1.499999999999997
 30
0.0
 11
-3.054603315127758
 21
1.499999999999997
 31
0.0
  0
LINE
  5
16B
  8
BLATTANSICHT_1_GEOMETRIEAN
  6
VOLLINIE
 62
    18
 10
-7.308688352016769
 20
1.499999999999997
 30
0.0
 11
-7.331606451612852
 21
1.499999999999997
 31
0.0
  0
LINE
  5
16C
  8
BLATTANSICHT_1_GEOMETRIEAN
  6
VOLLINIE
 62
    18
 10
-7.331606451612852
 20
1.499999999999997
 30
0.0
 11
-7.345396684906446
 21
1.499999999999997
 31
0.0
  0
LINE
  5
16D
  8
BLATTANSICHT_1_GEOMETRIEAN
  6
VOLLINIE
 62
    18
 10
-7.345396684906446
 20
1.499999999999997
 30
0.0
 11
-7.349999999999998
 21
1.499999999999997
 31
0.0
  0
LINE
  5
16E
  8
BLATTANSICHT_1_GEOMETRIEAN
  6
VOLLINIE
 62
    18
 10
-24.865649167
 20
5.34933037
 30
0.0
 11
-24.99852376170685
 21
5.237403218248098
 31
0.0
  0
LINE
  5
16F
  8
BLATTANSICHT_1_GEOMETRIEAN
  6
VOLLINIE
 62
    18
 10
-24.99852376170685
 20
5.237403218248098
 30
0.0
 11
-25.041292995082
 21
5.198454676208095
 31
0.0
  0
LINE
  5
170
  8
BLATTANSICHT_1_GEOMETRIEAN
  6
VOLLINIE
 62
    18
 10
-25.041292995082
 20
5.198454676208095
 30
0.0
 11
-25.12454804982254
 21
5.118098351490621
 31
0.0
  0
LINE
  5
171
  8
BLATTANSICHT_1_GEOMETRIEAN
  6
VOLLINIE
 62
    18
 10
-25.12454804982254
 20
5.118098351490621
 30
0.0
 11
-25.204758513532
 21
5.034463038620602
 31
0.0
  0
LINE
  5
172
  8
BLATTANSICHT_1_GEOMETRIEAN
  6
VOLLINIE
 62
    18
 10
-25.24366352598079
 20
4.991479172801222
 30
0.0
 11
-25.35510960321299
 21
4.8583699356955
 31
0.0
  0
LINE
  5
173
  8
BLATTANSICHT_1_GEOMETRIEAN
  6
VOLLINIE
 62
    18
 10
-25.204758513532
 20
5.034463038620602
 30
0.0
 11
-25.24366352598079
 21
4.991479172801222
 31
0.0
  0
LINE
  5
174
  8
BLATTANSICHT_1_GEOMETRIEAN
  6
VOLLINIE
 62
    18
 10
-25.35510960321299
 20
4.8583699356955
 30
0.0
 11
-25.45865225235174
 21
4.719024265105281
 31
0.0
  0
LINE
  5
175
  8
BLATTANSICHT_1_GEOMETRIEAN
  6
VOLLINIE
 62
    18
 10
-25.45865225235174
 20
4.719024265105281
 30
0.0
 11
-25.49141014742399
 21
4.671189826383807
 31
0.0
  0
LINE
  5
176
  8
BLATTANSICHT_1_GEOMETRIEAN
  6
VOLLINIE
 62
    18
 10
-25.49141014742399
 20
4.671189826383807
 30
0.0
 11
-25.55409923421463
 21
4.573728743925871
 31
0.0
  0
LINE
  5
177
  8
BLATTANSICHT_1_GEOMETRIEAN
  6
VOLLINIE
 62
    18
 10
-25.55409923421463
 20
4.573728743925871
 30
0.0
 11
-25.61289119245999
 21
4.474069086039248
 31
0.0
  0
LINE
  5
178
  8
BLATTANSICHT_1_GEOMETRIEAN
  6
VOLLINIE
 62
    18
 10
-25.64082576363331
 20
4.423414794079834
 30
0.0
 11
-25.71878378461599
 21
4.268154073315994
 31
0.0
  0
LINE
  5
179
  8
BLATTANSICHT_1_GEOMETRIEAN
  6
VOLLINIE
 62
    18
 10
-25.61289119245999
 20
4.474069086039248
 30
0.0
 11
-25.64082576363331
 21
4.423414794079834
 31
0.0
  0
LINE
  5
17A
  8
BLATTANSICHT_1_GEOMETRIEAN
  6
VOLLINIE
 62
    18
 10
-24.05308346019236
 20
4.066675061730392
 30
0.0
 11
-24.02451311919061
 21
4.095335882771084
 31
0.0
  0
LINE
  5
17B
  8
BLATTANSICHT_1_GEOMETRIEAN
  6
VOLLINIE
 62
    18
 10
-24.14066149568749
 20
3.972388886244
 30
0.0
 11
-24.1096274997128
 21
4.008748546050295
 31
0.0
  0
LINE
  5
17C
  8
BLATTANSICHT_1_GEOMETRIEAN
  6
VOLLINIE
 62
    18
 10
-24.21730801886743
 20
3.874592524921447
 30
0.0
 11
-24.18745793592666
 21
3.915585178034037
 31
0.0
  0
LINE
  5
17D
  8
BLATTANSICHT_1_GEOMETRIEAN
  6
VOLLINIE
 62
    18
 10
-24.2848797317719
 20
3.772030103205949
 30
0.0
 11
-24.25750576219213
 21
3.816446824946308
 31
0.0
  0
LINE
  5
17E
  8
BLATTANSICHT_1_GEOMETRIEAN
  6
VOLLINIE
 62
    18
 10
-24.34357530799275
 20
3.66484037926318
 30
0.0
 11
-24.31936703839192
 21
3.711889165224295
 31
0.0
  0
LINE
  5
17F
  8
BLATTANSICHT_1_GEOMETRIEAN
  6
VOLLINIE
 62
    18
 10
-24.39326599475708
 20
3.553471562625028
 30
0.0
 11
-24.37266740407972
 21
3.602470103800766
 31
0.0
  0
LINE
  5
180
  8
BLATTANSICHT_1_GEOMETRIEAN
  6
VOLLINIE
 62
    18
 10
-24.43365039867814
 20
3.438807031324757
 30
0.0
 11
-24.41713496815898
 21
3.488530683480664
 31
0.0
  0
LINE
  5
181
  8
BLATTANSICHT_1_GEOMETRIEAN
  6
VOLLINIE
 62
    18
 10
-24.46458789216748
 20
3.321460354780991
 30
0.0
 11
-24.45236138395176
 21
3.370670237350365
 31
0.0
  0
LINE
  5
182
  8
BLATTANSICHT_1_GEOMETRIEAN
  6
VOLLINIE
 62
    18
 10
-24.48594260847606
 20
3.202080164507076
 30
0.0
 11
-24.4780872888405
 21
3.248836286042011
 31
0.0
  0
LINE
  5
183
  8
BLATTANSICHT_1_GEOMETRIEAN
  6
VOLLINIE
 62
    18
 10
-24.49759828593327
 20
3.081357978755398
 30
0.0
 11
-24.4940901507975
 21
3.120517845782168
 31
0.0
  0
LINE
  5
184
  8
BLATTANSICHT_1_GEOMETRIEAN
  6
VOLLINIE
 62
    18
 10
-24.46205217862187
 20
2.669724543978196
 30
0.0
 11
-24.47248487744714
 21
2.716506997499322
 31
0.0
  0
LINE
  5
185
  8
BLATTANSICHT_1_GEOMETRIEAN
  6
VOLLINIE
 62
    18
 10
-24.4293277761794
 20
2.548471873075064
 30
0.0
 11
-24.44419201479769
 21
2.59712372100615
 31
0.0
  0
LINE
  5
186
  8
BLATTANSICHT_1_GEOMETRIEAN
  6
VOLLINIE
 62
    18
 10
-24.38714205435392
 20
2.431680552232232
 30
0.0
 11
-24.40618060436649
 21
2.480225405698574
 31
0.0
  0
LINE
  5
187
  8
BLATTANSICHT_1_GEOMETRIEAN
  6
VOLLINIE
 62
    18
 10
-24.33585540066155
 20
2.319527004497318
 30
0.0
 11
-24.3585154793421
 21
2.36631310546425
 31
0.0
  0
LINE
  5
188
  8
BLATTANSICHT_1_GEOMETRIEAN
  6
VOLLINIE
 62
    18
 10
-24.27578446200058
 20
2.212327827007504
 30
0.0
 11
-24.30130005599209
 21
2.256055814506565
 31
0.0
  0
LINE
  5
189
  8
BLATTANSICHT_1_GEOMETRIEAN
  6
VOLLINIE
 62
    18
 10
-24.207280375505
 20
2.11055326455593
 30
0.0
 11
-24.23430051798829
 21
2.149604403663127
 31
0.0
  0
LINE
  5
18A
  8
BLATTANSICHT_1_GEOMETRIEAN
  6
VOLLINIE
 62
    18
 10
-24.13075308610483
 20
2.014755311118508
 30
0.0
 11
-24.15547351843244
 21
2.04517663472541
 31
0.0
  0
LINE
  5
18B
  8
BLATTANSICHT_1_GEOMETRIEAN
  6
VOLLINIE
 62
    18
 10
-23.81679223593021
 20
1.74321710107441
 30
0.0
 11
-23.85730719246471
 21
1.769714826248696
 31
0.0
  0
LINE
  5
18C
  8
BLATTANSICHT_1_GEOMETRIEAN
  6
VOLLINIE
 62
    18
 10
-23.70881827322647
 20
1.679239164787398
 30
0.0
 11
-23.75357955417979
 21
1.703799922326388
 31
0.0
  0
LINE
  5
18D
  8
BLATTANSICHT_1_GEOMETRIEAN
  6
VOLLINIE
 62
    18
 10
-23.59719274751398
 20
1.625048651066299
 30
0.0
 11
-23.64466229363802
 21
1.646505764246419
 31
0.0
  0
LINE
  5
18E
  8
BLATTANSICHT_1_GEOMETRIEAN
  6
VOLLINIE
 62
    18
 10
-23.48205813762109
 20
1.580444329154152
 30
0.0
 11
-23.53112935965646
 21
1.598200795156937
 31
0.0
  0
LINE
  5
18F
  8
BLATTANSICHT_1_GEOMETRIEAN
  6
VOLLINIE
 62
    18
 10
-23.36415922131833
 20
1.545560114410708
 30
0.0
 11
-23.413233833399
 21
1.559137280765404
 31
0.0
  0
LINE
  5
190
  8
BLATTANSICHT_1_GEOMETRIEAN
  6
VOLLINIE
 62
    18
 10
-23.24406367594024
 20
1.520465809308392
 30
0.0
 11
-23.29107096058857
 21
1.529641668431498
 31
0.0
  0
LINE
  5
191
  8
BLATTANSICHT_1_GEOMETRIEAN
  6
VOLLINIE
 62
    18
 10
-23.12244345045531
 20
1.505254787633419
 30
0.0
 11
-23.16231533433562
 21
1.509888884991593
 31
0.0
  0
LINE
  5
192
  8
BLATTANSICHT_1_GEOMETRIEAN
  6
VOLLINIE
 62
    18
 10
-23.92260609959057
 20
1.81867315710461
 30
0.0
 11
-23.9551639394578
 21
1.843761360019934
 31
0.0
  0
LINE
  5
193
  8
BLATTANSICHT_1_GEOMETRIEAN
  6
VOLLINIE
 62
    18
 10
-24.04172291711997
 20
1.921088244393637
 30
0.0
 11
-24.04662048173733
 21
1.925505316700683
 31
0.0
  0
LINE
  5
194
  8
BLATTANSICHT_1_GEOMETRIEAN
  6
VOLLINIE
 62
    18
 10
-24.48520880230665
 20
2.797706420552363
 30
0.0
 11
-24.49093987955825
 21
2.837697565104762
 31
0.0
  0
LINE
  5
195
  8
BLATTANSICHT_1_GEOMETRIEAN
  6
VOLLINIE
 62
    18
 10
-23.12851142484609
 20
1.505515201253608
 30
0.0
 11
-23.2560778156023
 21
1.52202024629687
 31
0.0
  0
LINE
  5
196
  8
BLATTANSICHT_1_GEOMETRIEAN
  6
VOLLINIE
 62
    18
 10
-23.000000012444
 20
1.499999996345794
 30
0.0
 11
-23.12851142484609
 21
1.505515201253608
 31
0.0
  0
LINE
  5
197
  8
BLATTANSICHT_1_GEOMETRIEAN
  6
VOLLINIE
 62
    18
 10
-23.2560778156023
 20
1.52202024629687
 30
0.0
 11
-23.38176111246968
 21
1.549393763626424
 31
0.0
  0
LINE
  5
198
  8
BLATTANSICHT_1_GEOMETRIEAN
  6
VOLLINIE
 62
    18
 10
-23.38176111246968
 20
1.549393763626424
 30
0.0
 11
-23.50463709072498
 21
1.587434459338397
 31
0.0
  0
LINE
  5
199
  8
BLATTANSICHT_1_GEOMETRIEAN
  6
VOLLINIE
 62
    18
 10
-23.62380216954378
 20
1.635862597363278
 30
0.0
 11
-23.73838005657269
 21
1.694322056533198
 31
0.0
  0
LINE
  5
19A
  8
BLATTANSICHT_1_GEOMETRIEAN
  6
VOLLINIE
 62
    18
 10
-23.50463709072498
 20
1.587434459338397
 30
0.0
 11
-23.62380216954378
 21
1.635862597363278
 31
0.0
  0
LINE
  5
19B
  8
BLATTANSICHT_1_GEOMETRIEAN
  6
VOLLINIE
 62
    18
 10
-23.73838005657269
 20
1.694322056533198
 30
0.0
 11
-23.84752819183301
 21
1.762382949354577
 31
0.0
  0
LINE
  5
19C
  8
BLATTANSICHT_1_GEOMETRIEAN
  6
VOLLINIE
 62
    18
 10
-23.84752819183301
 20
1.762382949354577
 30
0.0
 11
-23.95044394357
 21
1.839544783228968
 31
0.0
  0
LINE
  5
19D
  8
BLATTANSICHT_1_GEOMETRIEAN
  6
VOLLINIE
 62
    18
 10
-24.04637051048595
 20
1.925240140875486
 30
0.0
 11
-24.13460248695445
 21
2.018838852890728
 31
0.0
  0
LINE
  5
19E
  8
BLATTANSICHT_1_GEOMETRIEAN
  6
VOLLINIE
 62
    18
 10
-23.95044394357
 20
1.839544783228968
 30
0.0
 11
-24.04637051048595
 21
1.925240140875486
 31
0.0
  0
LINE
  5
19F
  8
BLATTANSICHT_1_GEOMETRIEAN
  6
VOLLINIE
 62
    18
 10
-24.13460248695445
 20
2.018838852890728
 30
0.0
 11
-24.21449105029124
 21
2.119652631762615
 31
0.0
  0
LINE
  5
1A0
  8
BLATTANSICHT_1_GEOMETRIEAN
  6
VOLLINIE
 62
    18
 10
-24.21449105029124
 20
2.119652631762615
 30
0.0
 11
-24.28544873193702
 21
2.226940133261642
 31
0.0
  0
LINE
  5
1A1
  8
BLATTANSICHT_1_GEOMETRIEAN
  6
VOLLINIE
 62
    18
 10
-24.34695373746628
 20
2.339912407989973
 30
0.0
 11
-24.39855378365502
 21
2.457738702999905
 31
0.0
  0
LINE
  5
1A2
  8
BLATTANSICHT_1_GEOMETRIEAN
  6
VOLLINIE
 62
    18
 10
-24.28544873193702
 20
2.226940133261642
 30
0.0
 11
-24.34695373746628
 21
2.339912407989973
 31
0.0
  0
LINE
  5
1A3
  8
BLATTANSICHT_1_GEOMETRIEAN
  6
VOLLINIE
 62
    18
 10
-24.39855378365502
 20
2.457738702999905
 30
0.0
 11
-24.43986942439066
 21
2.579552570819016
 31
0.0
  0
LINE
  5
1A4
  8
BLATTANSICHT_1_GEOMETRIEAN
  6
VOLLINIE
 62
    18
 10
-24.43986942439066
 20
2.579552570819016
 30
0.0
 11
-24.47059684096716
 21
2.704458240958443
 31
0.0
  0
LINE
  5
1A5
  8
BLATTANSICHT_1_GEOMETRIEAN
  6
VOLLINIE
 62
    18
 10
-24.47059684096716
 20
2.704458240958443
 30
0.0
 11
-24.49051007624633
 21
2.831537207051053
 31
0.0
  0
LINE
  5
1A6
  8
BLATTANSICHT_1_GEOMETRIEAN
  6
VOLLINIE
 62
    18
 10
-24.49051007624633
 20
2.831537207051053
 30
0.0
 11
-24.4994627059
 21
2.959854980921797
 31
0.0
  0
LINE
  5
1A7
  8
BLATTANSICHT_1_GEOMETRIEAN
  6
VOLLINIE
 62
    18
 10
0.0
 20
0.0
 30
0.0
 11
0.0
 21
1.499999996345794
 31
0.0
  0
LINE
  5
1A8
  8
BLATTANSICHT_1_GEOMETRIEAN
  6
VOLLINIE
 62
    18
 10
0.0
 20
1.499999996345794
 30
0.0
 11
-23.000000012444
 21
1.499999996345794
 31
0.0
  0
LINE
  5
1A9
  8
BLATTANSICHT_1_GEOMETRIEAN
  6
VOLLINIE
 62
    18
 10
-23.000000012444
 20
0.0
 30
0.0
 11
0.0
 21
0.0
 31
0.0
  0
LINE
  5
1AA
  8
BLATTANSICHT_1_GEOMETRIEAN
  6
VOLLINIE
 62
    18
 10
-23.46137061377199
 20
0.0356894332428014
 30
0.0
 11
-23.23137550455799
 21
0.0089223583106947
 31
0.0
  0
LINE
  5
1AB
  8
BLATTANSICHT_1_GEOMETRIEAN
  6
VOLLINIE
 62
    18
 10
-23.23137550455799
 20
0.0089223583106947
 30
0.0
 11
-23.000000012444
 21
0.0
 31
0.0
  0
LINE
  5
1AC
  8
BLATTANSICHT_1_GEOMETRIEAN
  6
VOLLINIE
 62
    18
 10
-23.68862140277099
 20
0.0800889290438532
 30
0.0
 11
-23.46137061377199
 21
0.0356894332428014
 31
0.0
  0
LINE
  5
1AD
  8
BLATTANSICHT_1_GEOMETRIEAN
  6
VOLLINIE
 62
    18
 10
-23.91176388192799
 20
0.1419085666609991
 30
0.0
 11
-23.68862140277099
 21
0.0800889290438532
 31
0.0
  0
LINE
  5
1AE
  8
BLATTANSICHT_1_GEOMETRIEAN
  6
VOLLINIE
 62
    18
 10
-24.12948296679699
 20
0.2207288145681552
 30
0.0
 11
-23.91176388192799
 21
0.1419085666609991
 31
0.0
  0
LINE
  5
1AF
  8
BLATTANSICHT_1_GEOMETRIEAN
  6
VOLLINIE
 62
    18
 10
-24.340463572932
 20
0.3161301412392039
 30
0.0
 11
-24.12948296679699
 21
0.2207288145681552
 31
0.0
  0
LINE
  5
1B0
  8
BLATTANSICHT_1_GEOMETRIEAN
  6
VOLLINIE
 62
    18
 10
-24.54347078402699
 20
0.4274957699100988
 30
0.0
 11
-24.340463572932
 21
0.3161301412392039
 31
0.0
  0
LINE
  5
1B1
  8
BLATTANSICHT_1_GEOMETRIEAN
  6
VOLLINIE
 62
    18
 10
-24.737269683776
 20
0.5542089071172001
 30
0.0
 11
-24.54347078402699
 21
0.4274957699100988
 31
0.0
  0
LINE
  5
1B2
  8
BLATTANSICHT_1_GEOMETRIEAN
  6
VOLLINIE
 62
    18
 10
-24.920734890662
 20
0.6954701972821977
 30
0.0
 11
-24.737269683776
 21
0.5542089071172001
 31
0.0
  0
LINE
  5
1B3
  8
BLATTANSICHT_1_GEOMETRIEAN
  6
VOLLINIE
 62
    18
 10
-25.092741023168
 20
0.8504802681272
 30
0.0
 11
-24.920734890662
 21
0.6954701972821977
 31
0.0
  0
LINE
  5
1B4
  8
BLATTANSICHT_1_GEOMETRIEAN
  6
VOLLINIE
 62
    18
 10
-25.252299024849
 20
1.018276199841698
 30
0.0
 11
-25.092741023168
 21
0.8504802681272
 31
0.0
  0
LINE
  5
1B5
  8
BLATTANSICHT_1_GEOMETRIEAN
  6
VOLLINIE
 62
    18
 10
-25.39841983926
 20
1.197895055915599
 30
0.0
 11
-25.252299024849
 21
1.018276199841698
 31
0.0
  0
LINE
  5
1B6
  8
BLATTANSICHT_1_GEOMETRIEAN
  6
VOLLINIE
 62
    18
 10
-25.530274301584
 20
1.388233266244853
 30
0.0
 11
-25.39841983926
 21
1.197895055915599
 31
0.0
  0
LINE
  5
1B7
  8
BLATTANSICHT_1_GEOMETRIEAN
  6
VOLLINIE
 62
    18
 10
-25.64703319469199
 20
1.588187244025803
 30
0.0
 11
-25.530274301584
 21
1.388233266244853
 31
0.0
  0
LINE
  5
1B8
  8
BLATTANSICHT_1_GEOMETRIEAN
  6
VOLLINIE
 62
    18
 10
-25.748046901629
 20
1.796539020632052
 30
0.0
 11
-25.64703319469199
 21
1.588187244025803
 31
0.0
  0
LINE
  5
1B9
  8
BLATTANSICHT_1_GEOMETRIEAN
  6
VOLLINIE
 62
    18
 10
-25.83266580543999
 20
2.0120706274372
 30
0.0
 11
-25.748046901629
 21
1.796539020632052
 31
0.0
  0
LINE
  5
1BA
  8
BLATTANSICHT_1_GEOMETRIEAN
  6
VOLLINIE
 62
    18
 10
-25.90043533446199
 20
2.233478673185949
 30
0.0
 11
-25.83266580543999
 21
2.0120706274372
 31
0.0
  0
LINE
  5
1BB
  8
BLATTANSICHT_1_GEOMETRIEAN
  6
VOLLINIE
 62
    18
 10
-25.950900917032
 20
2.459459766623001
 30
0.0
 11
-25.90043533446199
 21
2.233478673185949
 31
0.0
  0
LINE
  5
1BC
  8
BLATTANSICHT_1_GEOMETRIEAN
  6
VOLLINIE
 62
    18
 10
-25.98381384228498
 20
2.688656127983303
 30
0.0
 11
-25.950900917032
 21
2.459459766623001
 31
0.0
  0
LINE
  5
1BD
  8
BLATTANSICHT_1_GEOMETRIEAN
  6
VOLLINIE
 62
    18
 10
-25.998925399356
 20
2.919709960802197
 30
0.0
 11
-25.98381384228498
 21
2.688656127983303
 31
0.0
  0
LINE
  5
1BE
  8
BLATTANSICHT_1_GEOMETRIEAN
  6
VOLLINIE
 62
    18
 10
-24.4994627059
 20
2.959854980921797
 30
0.0
 11
-24.49752502272677
 21
3.086132492749181
 31
0.0
  0
LINE
  5
1BF
  8
BLATTANSICHT_1_GEOMETRIEAN
  6
VOLLINIE
 62
    18
 10
-24.49752502272677
 20
3.086132492749181
 30
0.0
 11
-24.4849717174393
 21
3.211799429662495
 31
0.0
  0
LINE
  5
1C0
  8
BLATTANSICHT_1_GEOMETRIEAN
  6
VOLLINIE
 62
    18
 10
-24.02833145187596
 20
4.092032245440894
 30
0.0
 11
-23.932824584
 21
4.174665185000003
 31
0.0
  0
LINE
  5
1C1
  8
BLATTANSICHT_1_GEOMETRIEAN
  6
VOLLINIE
 62
    18
 10
-24.11654870026066
 20
4.001658125283373
 30
0.0
 11
-24.02833145187596
 21
4.092032245440894
 31
0.0
  0
LINE
  5
1C2
  8
BLATTANSICHT_1_GEOMETRIEAN
  6
VOLLINIE
 62
    18
 10
-24.19685097583225
 20
3.904183466808251
 30
0.0
 11
-24.11654870026066
 21
4.001658125283373
 31
0.0
  0
LINE
  5
1C3
  8
BLATTANSICHT_1_GEOMETRIEAN
  6
VOLLINIE
 62
    18
 10
-24.26866903308637
 20
3.800299246836898
 30
0.0
 11
-24.19685097583225
 21
3.904183466808251
 31
0.0
  0
LINE
  5
1C4
  8
BLATTANSICHT_1_GEOMETRIEAN
  6
VOLLINIE
 62
    18
 10
-24.33149376931167
 20
3.690741878189076
 30
0.0
 11
-24.26866903308637
 21
3.800299246836898
 31
0.0
  0
LINE
  5
1C5
  8
BLATTANSICHT_1_GEOMETRIEAN
  6
VOLLINIE
 62
    18
 10
-24.38487983350907
 20
3.576287989411422
 30
0.0
 11
-24.33149376931167
 21
3.690741878189076
 31
0.0
  0
LINE
  5
1C6
  8
BLATTANSICHT_1_GEOMETRIEAN
  6
VOLLINIE
 62
    18
 10
-24.42844878338883
 20
3.457748919425239
 30
0.0
 11
-24.38487983350907
 21
3.576287989411422
 31
0.0
  0
LINE
  5
1C7
  8
BLATTANSICHT_1_GEOMETRIEAN
  6
VOLLINIE
 62
    18
 10
-24.46189176806632
 20
3.335964966119902
 30
0.0
 11
-24.42844878338883
 21
3.457748919425239
 31
0.0
  0
LINE
  5
1C8
  8
BLATTANSICHT_1_GEOMETRIEAN
  6
VOLLINIE
 62
    18
 10
-24.4849717174393
 20
3.211799429662495
 30
0.0
 11
-24.46189176806632
 21
3.335964966119902
 31
0.0
  0
LINE
  5
1C9
  8
BLATTANSICHT_1_GEOMETRIEAN
  6
VOLLINIE
 62
    18
 10
-25.99619861673899
 20
3.151241372956804
 30
0.0
 11
-25.998925399356
 21
2.919709960802197
 31
0.0
  0
LINE
  5
1CA
  8
BLATTANSICHT_1_GEOMETRIEAN
  6
VOLLINIE
 62
    18
 10
-25.97559657523999
 20
3.381870489023802
 30
0.0
 11
-25.99619861673899
 21
3.151241372956804
 31
0.0
  0
LINE
  5
1CB
  8
BLATTANSICHT_1_GEOMETRIEAN
  6
VOLLINIE
 62
    18
 10
-25.80850438353199
 20
4.054695776124547
 30
0.0
 11
-25.88146950116
 21
3.834945182375396
 31
0.0
  0
LINE
  5
1CC
  8
BLATTANSICHT_1_GEOMETRIEAN
  6
VOLLINIE
 62
    18
 10
-25.71878378461599
 20
4.268154073315994
 30
0.0
 11
-25.80850438353199
 21
4.054695776124547
 31
0.0
  0
LINE
  5
1CD
  8
BLATTANSICHT_1_GEOMETRIEAN
  6
VOLLINIE
 62
    18
 10
-25.88146950116
 20
3.834945182375396
 30
0.0
 11
-25.93729495817199
 21
3.610228142198403
 31
0.0
  0
LINE
  5
1CE
  8
BLATTANSICHT_1_GEOMETRIEAN
  6
VOLLINIE
 62
    18
 10
-25.93729495817199
 20
3.610228142198403
 30
0.0
 11
-25.97559657523999
 21
3.381870489023802
 31
0.0
  0
LINE
  5
1CF
  8
BLATTANSICHT_1_GEOMETRIEAN
  6
VOLLINIE
 62
    18
 10
-20.217175416
 20
7.125334815
 30
0.0
 11
-21.15
 21
8.299999999999995
 31
0.0
  0
LINE
  5
1D0
  8
BLATTANSICHT_1_GEOMETRIEAN
  6
VOLLINIE
 62
    18
 10
-21.15
 20
8.299999999999995
 30
0.0
 11
-24.865649167
 21
5.34933037
 31
0.0
  0
LINE
  5
1D1
  8
BLATTANSICHT_1_GEOMETRIEAN
  6
VOLLINIE
 62
    18
 10
-23.932824584
 20
4.174665185000003
 30
0.0
 11
-20.217175416
 21
7.125334815
 31
0.0
  0
LINE
  5
1D2
  8
BLATTANSICHT_1_GEOMETRIEAN
  6
VOLLINIE
 62
    18
 10
-24.865649167
 20
5.34933037
 30
0.0
 11
-25.041292995082
 21
5.198454676208095
 31
0.0
  0
LINE
  5
1D3
  8
BLATTANSICHT_1_GEOMETRIEAN
  6
VOLLINIE
 62
    18
 10
-25.041292995082
 20
5.198454676208095
 30
0.0
 11
-25.204758513532
 21
5.034463038620602
 31
0.0
  0
LINE
  5
1D4
  8
BLATTANSICHT_1_GEOMETRIEAN
  6
VOLLINIE
 62
    18
 10
-25.204758513532
 20
5.034463038620602
 30
0.0
 11
-25.35510960321299
 21
4.8583699356955
 31
0.0
  0
LINE
  5
1D5
  8
BLATTANSICHT_1_GEOMETRIEAN
  6
VOLLINIE
 62
    18
 10
-25.35510960321299
 20
4.8583699356955
 30
0.0
 11
-25.49141014742399
 21
4.671189826383807
 31
0.0
  0
LINE
  5
1D6
  8
BLATTANSICHT_1_GEOMETRIEAN
  6
VOLLINIE
 62
    18
 10
-25.49141014742399
 20
4.671189826383807
 30
0.0
 11
-25.61289119245999
 21
4.474069086039248
 31
0.0
  0
LINE
  5
1D7
  8
BLATTANSICHT_1_GEOMETRIEAN
  6
VOLLINIE
 62
    18
 10
-25.61289119245999
 20
4.474069086039248
 30
0.0
 11
-25.71878378461599
 21
4.268154073315994
 31
0.0
  0
LINE
  5
1D8
  8
BLATTANSICHT_1_GEOMETRIEAN
  6
VOLLINIE
 62
    18
 10
-13.0525819705625
 20
-48.64516872972887
 30
0.0
 11
-13.05
 21
-48.75079268746498
 31
0.0
  0
LINE
  5
1D9
  8
BLATTANSICHT_1_GEOMETRIEAN
  6
VOLLINIE
 62
    18
 10
-13.06032790625001
 20
-48.54005337767887
 30
0.0
 11
-13.0525819705625
 21
-48.64516872972887
 31
0.0
  0
LINE
  5
1DA
  8
BLATTANSICHT_1_GEOMETRIEAN
  6
VOLLINIE
 62
    18
 10
-13.07323779906251
 20
-48.43544663092887
 30
0.0
 11
-13.06032790625001
 21
-48.54005337767887
 31
0.0
  0
LINE
  5
1DB
  8
BLATTANSICHT_1_GEOMETRIEAN
  6
VOLLINIE
 62
    18
 10
-13.09131164899999
 20
-48.33134848947887
 30
0.0
 11
-13.07323779906251
 21
-48.43544663092887
 31
0.0
  0
LINE
  5
1DC
  8
BLATTANSICHT_1_GEOMETRIEAN
  6
VOLLINIE
 62
    18
 10
-13.14255430349999
 20
-48.12667336447887
 30
0.0
 11
-13.11445022112499
 21
-48.22825779262887
 31
0.0
  0
LINE
  5
1DD
  8
BLATTANSICHT_1_GEOMETRIEAN
  6
VOLLINIE
 62
    18
 10
-13.7562335659375
 20
-47.15765143087887
 30
0.0
 11
-13.679720419
 21
-47.23051311347887
 31
0.0
  0
LINE
  5
1DE
  8
BLATTANSICHT_1_GEOMETRIEAN
  6
VOLLINIE
 62
    18
 10
-13.83603854475
 20
-47.08880085347887
 30
0.0
 11
-13.7562335659375
 21
-47.15765143087887
 31
0.0
  0
LINE
  5
1DF
  8
BLATTANSICHT_1_GEOMETRIEAN
  6
VOLLINIE
 62
    18
 10
-13.9191353554375
 20
-47.02396138127887
 30
0.0
 11
-13.83603854475
 21
-47.08880085347887
 31
0.0
  0
LINE
  5
1E0
  8
BLATTANSICHT_1_GEOMETRIEAN
  6
VOLLINIE
 62
    18
 10
-14.005523998
 20
-46.96313301427887
 30
0.0
 11
-13.9191353554375
 21
-47.02396138127887
 31
0.0
  0
LINE
  5
1E1
  8
BLATTANSICHT_1_GEOMETRIEAN
  6
VOLLINIE
 62
    18
 10
-13.679720419
 20
-47.23051311347887
 30
0.0
 11
-13.60685874056251
 21
-47.30702626357887
 31
0.0
  0
LINE
  5
1E2
  8
BLATTANSICHT_1_GEOMETRIEAN
  6
VOLLINIE
 62
    18
 10
-13.60685874056251
 20
-47.30702626357887
 30
0.0
 11
-13.53800816724999
 21
-47.38683124347887
 31
0.0
  0
LINE
  5
1E3
  8
BLATTANSICHT_1_GEOMETRIEAN
  6
VOLLINIE
 62
    18
 10
-13.4731686990625
 20
-47.46992805317887
 30
0.0
 11
-13.412340336
 21
-47.55631669267887
 31
0.0
  0
LINE
  5
1E4
  8
BLATTANSICHT_1_GEOMETRIEAN
  6
VOLLINIE
 62
    18
 10
-13.53800816724999
 20
-47.38683124347887
 30
0.0
 11
-13.4731686990625
 21
-47.46992805317887
 31
0.0
  0
LINE
  5
1E5
  8
BLATTANSICHT_1_GEOMETRIEAN
  6
VOLLINIE
 62
    18
 10
-13.412340336
 20
-47.55631669267887
 30
0.0
 11
-13.35580564456249
 21
-47.64557427232887
 31
0.0
  0
LINE
  5
1E6
  8
BLATTANSICHT_1_GEOMETRIEAN
  6
VOLLINIE
 62
    18
 10
-13.30384719124999
 20
-47.73727790247887
 30
0.0
 11
-13.2564649760625
 21
-47.83142758312887
 31
0.0
  0
LINE
  5
1E7
  8
BLATTANSICHT_1_GEOMETRIEAN
  6
VOLLINIE
 62
    18
 10
-13.35580564456249
 20
-47.64557427232887
 30
0.0
 11
-13.30384719124999
 21
-47.73727790247887
 31
0.0
  0
LINE
  5
1E8
  8
BLATTANSICHT_1_GEOMETRIEAN
  6
VOLLINIE
 62
    18
 10
-13.2564649760625
 20
-47.83142758312887
 30
0.0
 11
-13.213658999
 21
-47.92802331427887
 31
0.0
  0
LINE
  5
1E9
  8
BLATTANSICHT_1_GEOMETRIEAN
  6
VOLLINIE
 62
    18
 10
-13.175623896125
 20
-48.02659520502887
 30
0.0
 11
-13.14255430349999
 21
-48.12667336447887
 31
0.0
  0
LINE
  5
1EA
  8
BLATTANSICHT_1_GEOMETRIEAN
  6
VOLLINIE
 62
    18
 10
-13.213658999
 20
-47.92802331427887
 30
0.0
 11
-13.175623896125
 21
-48.02659520502887
 31
0.0
  0
LINE
  5
1EB
  8
BLATTANSICHT_1_GEOMETRIEAN
  6
VOLLINIE
 62
    18
 10
-13.11445022112499
 20
-48.22825779262887
 30
0.0
 11
-13.09131164899999
 21
-48.33134848947887
 31
0.0
  0
LINE
  5
1EC
  8
BLATTANSICHT_1_GEOMETRIEAN
  6
VOLLINIE
 62
    18
 10
-14.18648520925
 20
-46.85463987547887
 30
0.0
 11
-14.0947815800625
 21
-46.90659832617887
 31
0.0
  0
LINE
  5
1ED
  8
BLATTANSICHT_1_GEOMETRIEAN
  6
VOLLINIE
 62
    18
 10
-14.2806348855625
 20
-46.80725766217888
 30
0.0
 11
-14.18648520925
 21
-46.85463987547887
 31
0.0
  0
LINE
  5
1EE
  8
BLATTANSICHT_1_GEOMETRIEAN
  6
VOLLINIE
 62
    18
 10
-14.37723060899999
 20
-46.76445168627887
 30
0.0
 11
-14.2806348855625
 21
-46.80725766217888
 31
0.0
  0
LINE
  5
1EF
  8
BLATTANSICHT_1_GEOMETRIEAN
  6
VOLLINIE
 62
    18
 10
-14.0947815800625
 20
-46.90659832617887
 30
0.0
 11
-14.005523998
 21
-46.96313301427887
 31
0.0
  0
LINE
  5
1F0
  8
BLATTANSICHT_1_GEOMETRIEAN
  6
VOLLINIE
 62
    18
 10
-14.575880666
 20
-46.69334699827887
 30
0.0
 11
-14.4758025025
 21
-46.72641658947887
 31
0.0
  0
LINE
  5
1F1
  8
BLATTANSICHT_1_GEOMETRIEAN
  6
VOLLINIE
 62
    18
 10
-14.6774650995
 20
-46.66524291267887
 30
0.0
 11
-14.575880666
 21
-46.69334699827887
 31
0.0
  0
LINE
  5
1F2
  8
BLATTANSICHT_1_GEOMETRIEAN
  6
VOLLINIE
 62
    18
 10
-14.780555803
 20
-46.64210433267887
 30
0.0
 11
-14.6774650995
 21
-46.66524291267887
 31
0.0
  0
LINE
  5
1F3
  8
BLATTANSICHT_1_GEOMETRIEAN
  6
VOLLINIE
 62
    18
 10
-14.4758025025
 20
-46.72641658947887
 30
0.0
 11
-14.37723060899999
 21
-46.76445168627887
 31
0.0
  0
LINE
  5
1F4
  8
BLATTANSICHT_1_GEOMETRIEAN
  6
VOLLINIE
 62
    18
 10
-0.0000000058905377
 20
-41.15079268707888
 30
0.0
 11
-20.217175416
 21
-41.15079268707888
 31
0.0
  0
LINE
  5
1F5
  8
BLATTANSICHT_1_GEOMETRIEAN
  6
VOLLINIE
 62
    18
 10
-14.88465394387499
 20
-46.62403049052887
 30
0.0
 11
-14.780555803
 21
-46.64210433267887
 31
0.0
  0
LINE
  5
1F6
  8
BLATTANSICHT_1_GEOMETRIEAN
  6
VOLLINIE
 62
    18
 10
-15.305623950125
 20
-46.60337467092887
 30
0.0
 11
-15.199999995
 21
-46.60079269347887
 31
0.0
  0
LINE
  5
1F7
  8
BLATTANSICHT_1_GEOMETRIEAN
  6
VOLLINIE
 62
    18
 10
-15.4107393005
 20
-46.61112060327888
 30
0.0
 11
-15.305623950125
 21
-46.60337467092887
 31
0.0
  0
LINE
  5
1F8
  8
BLATTANSICHT_1_GEOMETRIEAN
  6
VOLLINIE
 62
    18
 10
-15.515346046125
 20
-46.62403049052887
 30
0.0
 11
-15.4107393005
 21
-46.61112060327888
 31
0.0
  0
LINE
  5
1F9
  8
BLATTANSICHT_1_GEOMETRIEAN
  6
VOLLINIE
 62
    18
 10
-15.61944418699999
 20
-46.64210433267887
 30
0.0
 11
-15.515346046125
 21
-46.62403049052887
 31
0.0
  0
LINE
  5
1FA
  8
BLATTANSICHT_1_GEOMETRIEAN
  6
VOLLINIE
 62
    18
 10
-15.09437603987499
 20
-46.60337467092887
 30
0.0
 11
-14.9892606895
 21
-46.61112060327888
 31
0.0
  0
LINE
  5
1FB
  8
BLATTANSICHT_1_GEOMETRIEAN
  6
VOLLINIE
 62
    18
 10
-15.199999995
 20
-46.60079269347887
 30
0.0
 11
-15.09437603987499
 21
-46.60337467092887
 31
0.0
  0
LINE
  5
1FC
  8
BLATTANSICHT_1_GEOMETRIEAN
  6
VOLLINIE
 62
    18
 10
-14.9892606895
 20
-46.61112060327888
 30
0.0
 11
-14.88465394387499
 21
-46.62403049052887
 31
0.0
  0
LINE
  5
1FD
  8
BLATTANSICHT_1_GEOMETRIEAN
  6
VOLLINIE
 62
    18
 10
-15.7225348905
 20
-46.66524291267887
 30
0.0
 11
-15.61944418699999
 21
-46.64210433267887
 31
0.0
  0
LINE
  5
1FE
  8
BLATTANSICHT_1_GEOMETRIEAN
  6
VOLLINIE
 62
    18
 10
-15.82411932399999
 20
-46.69334699827887
 30
0.0
 11
-15.7225348905
 21
-46.66524291267887
 31
0.0
  0
LINE
  5
1FF
  8
BLATTANSICHT_1_GEOMETRIEAN
  6
VOLLINIE
 62
    18
 10
-15.9241974875
 20
-46.72641658947887
 30
0.0
 11
-15.82411932399999
 21
-46.69334699827887
 31
0.0
  0
LINE
  5
200
  8
BLATTANSICHT_1_GEOMETRIEAN
  6
VOLLINIE
 62
    18
 10
-16.022769381
 20
-46.76445168627887
 30
0.0
 11
-15.9241974875
 21
-46.72641658947887
 31
0.0
  0
LINE
  5
201
  8
BLATTANSICHT_1_GEOMETRIEAN
  6
VOLLINIE
 62
    18
 10
-16.1193651130625
 20
-46.80725766217887
 30
0.0
 11
-16.022769381
 21
-46.76445168627887
 31
0.0
  0
LINE
  5
202
  8
BLATTANSICHT_1_GEOMETRIEAN
  6
VOLLINIE
 62
    18
 10
-16.21351479225
 20
-46.85463987547887
 30
0.0
 11
-16.1193651130625
 21
-46.80725766217887
 31
0.0
  0
LINE
  5
203
  8
BLATTANSICHT_1_GEOMETRIEAN
  6
VOLLINIE
 62
    18
 10
-16.30521841856249
 20
-46.90659832617887
 30
0.0
 11
-16.21351479225
 21
-46.85463987547887
 31
0.0
  0
LINE
  5
204
  8
BLATTANSICHT_1_GEOMETRIEAN
  6
VOLLINIE
 62
    18
 10
-16.394475992
 20
-46.96313301427887
 30
0.0
 11
-16.30521841856249
 21
-46.90659832617887
 31
0.0
  0
LINE
  5
205
  8
BLATTANSICHT_1_GEOMETRIEAN
  6
VOLLINIE
 62
    18
 10
-16.48086463456249
 20
-47.02396138127887
 30
0.0
 11
-16.394475992
 21
-46.96313301427887
 31
0.0
  0
LINE
  5
206
  8
BLATTANSICHT_1_GEOMETRIEAN
  6
VOLLINIE
 62
    18
 10
-16.56396144525
 20
-47.08880085347887
 30
0.0
 11
-16.48086463456249
 21
-47.02396138127887
 31
0.0
  0
LINE
  5
207
  8
BLATTANSICHT_1_GEOMETRIEAN
  6
VOLLINIE
 62
    18
 10
-16.6437664240625
 20
-47.15765143087886
 30
0.0
 11
-16.56396144525
 21
-47.08880085347887
 31
0.0
  0
LINE
  5
208
  8
BLATTANSICHT_1_GEOMETRIEAN
  6
VOLLINIE
 62
    18
 10
-16.720279571
 20
-47.23051311347887
 30
0.0
 11
-16.6437664240625
 21
-47.15765143087886
 31
0.0
  0
LINE
  5
209
  8
BLATTANSICHT_1_GEOMETRIEAN
  6
VOLLINIE
 62
    18
 10
-16.7931412595
 20
-47.30702626357887
 30
0.0
 11
-16.720279571
 21
-47.23051311347887
 31
0.0
  0
LINE
  5
20A
  8
BLATTANSICHT_1_GEOMETRIEAN
  6
VOLLINIE
 62
    18
 10
-16.86199183999999
 20
-47.38683124347887
 30
0.0
 11
-16.7931412595
 21
-47.30702626357887
 31
0.0
  0
LINE
  5
20B
  8
BLATTANSICHT_1_GEOMETRIEAN
  6
VOLLINIE
 62
    18
 10
-16.9268313125
 20
-47.46992805317887
 30
0.0
 11
-16.86199183999999
 21
-47.38683124347887
 31
0.0
  0
LINE
  5
20C
  8
BLATTANSICHT_1_GEOMETRIEAN
  6
VOLLINIE
 62
    18
 10
-16.987659677
 20
-47.55631669267887
 30
0.0
 11
-16.9268313125
 21
-47.46992805317887
 31
0.0
  0
LINE
  5
20D
  8
BLATTANSICHT_1_GEOMETRIEAN
  6
VOLLINIE
 62
    18
 10
-17.044194358375
 20
-47.64557427232887
 30
0.0
 11
-16.987659677
 21
-47.55631669267887
 31
0.0
  0
LINE
  5
20E
  8
BLATTANSICHT_1_GEOMETRIEAN
  6
VOLLINIE
 62
    18
 10
-17.09615280449999
 20
-47.73727790247887
 30
0.0
 11
-17.044194358375
 21
-47.64557427232887
 31
0.0
  0
LINE
  5
20F
  8
BLATTANSICHT_1_GEOMETRIEAN
  6
VOLLINIE
 62
    18
 10
-17.143535015375
 20
-47.83142758312887
 30
0.0
 11
-17.09615280449999
 21
-47.73727790247887
 31
0.0
  0
LINE
  5
210
  8
BLATTANSICHT_1_GEOMETRIEAN
  6
VOLLINIE
 62
    18
 10
-17.186340991
 20
-47.92802331427887
 30
0.0
 11
-17.143535015375
 21
-47.83142758312887
 31
0.0
  0
LINE
  5
211
  8
BLATTANSICHT_1_GEOMETRIEAN
  6
VOLLINIE
 62
    18
 10
-17.2243760953125
 20
-48.02659520502888
 30
0.0
 11
-17.186340991
 21
-47.92802331427887
 31
0.0
  0
LINE
  5
212
  8
BLATTANSICHT_1_GEOMETRIEAN
  6
VOLLINIE
 62
    18
 10
-17.25744569224999
 20
-48.12667336447887
 30
0.0
 11
-17.2243760953125
 21
-48.02659520502888
 31
0.0
  0
LINE
  5
213
  8
BLATTANSICHT_1_GEOMETRIEAN
  6
VOLLINIE
 62
    18
 10
-17.2855497818125
 20
-48.22825779262887
 30
0.0
 11
-17.25744569224999
 21
-48.12667336447887
 31
0.0
  0
LINE
  5
214
  8
BLATTANSICHT_1_GEOMETRIEAN
  6
VOLLINIE
 62
    18
 10
-17.30868836399999
 20
-48.33134848947887
 30
0.0
 11
-17.2855497818125
 21
-48.22825779262887
 31
0.0
  0
LINE
  5
215
  8
BLATTANSICHT_1_GEOMETRIEAN
  6
VOLLINIE
 62
    18
 10
-17.326762203875
 20
-48.43544663092887
 30
0.0
 11
-17.30868836399999
 21
-48.33134848947887
 31
0.0
  0
LINE
  5
216
  8
BLATTANSICHT_1_GEOMETRIEAN
  6
VOLLINIE
 62
    18
 10
-17.3396720895
 20
-48.54005337767887
 30
0.0
 11
-17.326762203875
 21
-48.43544663092887
 31
0.0
  0
LINE
  5
217
  8
BLATTANSICHT_1_GEOMETRIEAN
  6
VOLLINIE
 62
    18
 10
-17.347418020875
 20
-48.64516872972887
 30
0.0
 11
-17.3396720895
 21
-48.54005337767887
 31
0.0
  0
LINE
  5
218
  8
BLATTANSICHT_1_GEOMETRIEAN
  6
VOLLINIE
 62
    18
 10
-17.35
 20
-48.75079268796082
 30
0.0
 11
-17.347418020875
 21
-48.64516872972887
 31
0.0
  0
LINE
  5
219
  8
BLATTANSICHT_1_GEOMETRIEAN
  6
VOLLINIE
 62
    18
 10
-17.3453966848593
 20
-48.89140941650565
 30
0.0
 11
-17.35
 21
-48.75079268796082
 31
0.0
  0
LINE
  5
21A
  8
BLATTANSICHT_1_GEOMETRIEAN
  6
VOLLINIE
 62
    18
 10
-17.30868835228319
 20
-49.17023688234825
 30
0.0
 11
-17.33160645165494
 21
-49.03142400262119
 31
0.0
  0
LINE
  5
21B
  8
BLATTANSICHT_1_GEOMETRIEAN
  6
VOLLINIE
 62
    18
 10
-17.33160645165494
 20
-49.03142400262119
 30
0.0
 11
-17.3453966848593
 21
-48.89140941650565
 31
0.0
  0
LINE
  5
21C
  8
BLATTANSICHT_1_GEOMETRIEAN
  6
VOLLINIE
 62
    18
 10
-14.37723061275792
 20
-50.73713367880644
 30
0.0
 11
-14.5089051430162
 21
-50.78669246325906
 31
0.0
  0
LINE
  5
21D
  8
BLATTANSICHT_1_GEOMETRIEAN
  6
VOLLINIE
 62
    18
 10
-14.5089051430162
 20
-50.78669246325906
 30
0.0
 11
-14.64353904760712
 21
-50.82753321214743
 31
0.0
  0
LINE
  5
21E
  8
BLATTANSICHT_1_GEOMETRIEAN
  6
VOLLINIE
 62
    18
 10
-14.64353904760712
 20
-50.82753321214743
 30
0.0
 11
-14.7805558034709
 21
-50.85948103911149
 31
0.0
  0
LINE
  5
21F
  8
BLATTANSICHT_1_GEOMETRIEAN
  6
VOLLINIE
 62
    18
 10
-14.24907931187769
 20
-50.67906907932688
 30
0.0
 11
-14.37723061275792
 21
-50.73713367880644
 31
0.0
  0
LINE
  5
220
  8
BLATTANSICHT_1_GEOMETRIEAN
  6
VOLLINIE
 62
    18
 10
-14.12499999916029
 20
-50.61274730473061
 30
0.0
 11
-14.24907931187769
 21
-50.67906907932688
 31
0.0
  0
LINE
  5
221
  8
BLATTANSICHT_1_GEOMETRIEAN
  6
VOLLINIE
 62
    18
 10
-14.00552400124418
 20
-50.53845235502361
 30
0.0
 11
-14.12499999916029
 21
-50.61274730473061
 31
0.0
  0
LINE
  5
222
  8
BLATTANSICHT_1_GEOMETRIEAN
  6
VOLLINIE
 62
    18
 10
-13.71324693246668
 20
-50.30387520780347
 30
0.0
 11
-13.85426453714785
 21
-50.42754432760948
 31
0.0
  0
LINE
  5
223
  8
BLATTANSICHT_1_GEOMETRIEAN
  6
VOLLINIE
 62
    18
 10
-13.58354441631749
 20
-50.1683861922776
 30
0.0
 11
-13.71324693246668
 21
-50.30387520780347
 31
0.0
  0
LINE
  5
224
  8
BLATTANSICHT_1_GEOMETRIEAN
  6
VOLLINIE
 62
    18
 10
-13.46614410316134
 20
-50.02210843424706
 30
0.0
 11
-13.58354441631749
 21
-50.1683861922776
 31
0.0
  0
LINE
  5
225
  8
BLATTANSICHT_1_GEOMETRIEAN
  6
VOLLINIE
 62
    18
 10
-13.19618308281704
 20
-49.53003447395337
 30
0.0
 11
-13.27172360773134
 21
-49.7017133751593
 31
0.0
  0
LINE
  5
226
  8
BLATTANSICHT_1_GEOMETRIEAN
  6
VOLLINIE
 62
    18
 10
-13.13589281452899
 20
-49.3524250722502
 30
0.0
 11
-13.19618308281704
 21
-49.53003447395337
 31
0.0
  0
LINE
  5
227
  8
BLATTANSICHT_1_GEOMETRIEAN
  6
VOLLINIE
 62
    18
 10
-13.09131164821159
 20
-49.1702368848357
 30
0.0
 11
-13.13589281452899
 21
-49.3524250722502
 31
0.0
  0
LINE
  5
228
  8
BLATTANSICHT_1_GEOMETRIEAN
  6
VOLLINIE
 62
    18
 10
-13.27172360773134
 20
-49.7017133751593
 30
0.0
 11
-13.36193948026662
 21
-49.86615519577165
 31
0.0
  0
LINE
  5
229
  8
BLATTANSICHT_1_GEOMETRIEAN
  6
VOLLINIE
 62
    18
 10
-13.36193948026662
 20
-49.86615519577165
 30
0.0
 11
-13.46614410316134
 21
-50.02210843424706
 31
0.0
  0
LINE
  5
22A
  8
BLATTANSICHT_1_GEOMETRIEAN
  6
VOLLINIE
 62
    18
 10
-13.85426453714785
 20
-50.42754432760948
 30
0.0
 11
-14.00552400124418
 21
-50.53845235502361
 31
0.0
  0
LINE
  5
22B
  8
BLATTANSICHT_1_GEOMETRIEAN
  6
VOLLINIE
 62
    18
 10
-13.06839354854417
 20
-49.03142400413363
 30
0.0
 11
-13.09131164821159
 21
-49.1702368848357
 31
0.0
  0
LINE
  5
22C
  8
BLATTANSICHT_1_GEOMETRIEAN
  6
VOLLINIE
 62
    18
 10
-13.05460331517436
 20
-48.89140941701938
 30
0.0
 11
-13.06839354854417
 21
-49.03142400413363
 31
0.0
  0
LINE
  5
22D
  8
BLATTANSICHT_1_GEOMETRIEAN
  6
VOLLINIE
 62
    18
 10
-13.05
 20
-48.75079268746498
 30
0.0
 11
-13.05460331517436
 21
-48.89140941701938
 31
0.0
  0
LINE
  5
22E
  8
BLATTANSICHT_1_GEOMETRIEAN
  6
VOLLINIE
 62
    18
 10
0.0
 20
-56.35079268707887
 30
0.0
 11
-0.0000000058905377
 21
-41.15079268707888
 31
0.0
  0
LINE
  5
22F
  8
BLATTANSICHT_1_GEOMETRIEAN
  6
VOLLINIE
 62
    18
 10
-3.054603315127758
 20
-48.61017595784945
 30
0.0
 11
-3.049999999999994
 21
-48.75079268746498
 31
0.0
  0
LINE
  5
230
  8
BLATTANSICHT_1_GEOMETRIEAN
  6
VOLLINIE
 62
    18
 10
-3.091311647945165
 20
-48.33134849066143
 30
0.0
 11
-3.068393548408539
 21
-48.47016137105435
 31
0.0
  0
LINE
  5
231
  8
BLATTANSICHT_1_GEOMETRIEAN
  6
VOLLINIE
 62
    18
 10
-3.068393548408539
 20
-48.47016137105435
 30
0.0
 11
-3.054603315127758
 21
-48.61017595784945
 31
0.0
  0
LINE
  5
232
  8
BLATTANSICHT_1_GEOMETRIEAN
  6
VOLLINIE
 62
    18
 10
-3.164100221500057
 20
-48.05969783692884
 30
0.0
 11
-3.123259473982797
 21
-48.19433173822641
 31
0.0
  0
LINE
  5
233
  8
BLATTANSICHT_1_GEOMETRIEAN
  6
VOLLINIE
 62
    18
 10
-3.213659004151609
 20
-47.92802330978532
 30
0.0
 11
-3.164100221500057
 21
-48.05969783692884
 31
0.0
  0
LINE
  5
234
  8
BLATTANSICHT_1_GEOMETRIEAN
  6
VOLLINIE
 62
    18
 10
-3.123259473982797
 20
-48.19433173822641
 30
0.0
 11
-3.091311647945165
 21
-48.33134849066143
 31
0.0
  0
LINE
  5
235
  8
BLATTANSICHT_1_GEOMETRIEAN
  6
VOLLINIE
 62
    18
 10
-3.284335971169686
 20
-47.77471311622124
 30
0.0
 11
-3.213659004151609
 21
-47.92802330978532
 31
0.0
  0
LINE
  5
236
  8
BLATTANSICHT_1_GEOMETRIEAN
  6
VOLLINIE
 62
    18
 10
-3.366823643733059
 20
-47.62742077768115
 30
0.0
 11
-3.284335971169686
 21
-47.77471311622124
 31
0.0
  0
LINE
  5
237
  8
BLATTANSICHT_1_GEOMETRIEAN
  6
VOLLINIE
 62
    18
 10
-3.460613457919717
 20
-47.48705440039527
 30
0.0
 11
-3.366823643733059
 21
-47.62742077768115
 31
0.0
  0
LINE
  5
238
  8
BLATTANSICHT_1_GEOMETRIEAN
  6
VOLLINIE
 62
    18
 10
-3.565127168347466
 20
-47.35447938974033
 30
0.0
 11
-3.460613457919717
 21
-47.48705440039527
 31
0.0
  0
LINE
  5
239
  8
BLATTANSICHT_1_GEOMETRIEAN
  6
VOLLINIE
 62
    18
 10
-3.679720413248928
 20
-47.23051311472779
 30
0.0
 11
-3.565127168347466
 21
-47.35447938974033
 31
0.0
  0
LINE
  5
23A
  8
BLATTANSICHT_1_GEOMETRIEAN
  6
VOLLINIE
 62
    18
 10
-3.782406491646609
 20
-47.13433710616292
 30
0.0
 11
-3.679720413248928
 21
-47.23051311472779
 31
0.0
  0
LINE
  5
23B
  8
BLATTANSICHT_1_GEOMETRIEAN
  6
VOLLINIE
 62
    18
 10
-3.891162923282696
 20
-47.04508300878948
 30
0.0
 11
-3.782406491646609
 21
-47.13433710616292
 31
0.0
  0
LINE
  5
23C
  8
BLATTANSICHT_1_GEOMETRIEAN
  6
VOLLINIE
 62
    18
 10
-4.005523996404788
 20
-46.96313302236771
 30
0.0
 11
-3.891162923282696
 21
-47.04508300878948
 31
0.0
  0
LINE
  5
23D
  8
BLATTANSICHT_1_GEOMETRIEAN
  6
VOLLINIE
 62
    18
 10
-4.125000000067169
 20
-46.88883806890355
 30
0.0
 11
-4.005523996404788
 21
-46.96313302236771
 31
0.0
  0
LINE
  5
23E
  8
BLATTANSICHT_1_GEOMETRIEAN
  6
VOLLINIE
 62
    18
 10
-4.249079318976092
 20
-46.82251629133032
 30
0.0
 11
-4.125000000067169
 21
-46.88883806890355
 31
0.0
  0
LINE
  5
23F
  8
BLATTANSICHT_1_GEOMETRIEAN
  6
VOLLINIE
 62
    18
 10
-4.377230626414772
 20
-46.76445168969444
 30
0.0
 11
-4.249079318976092
 21
-46.82251629133032
 31
0.0
  0
LINE
  5
240
  8
BLATTANSICHT_1_GEOMETRIEAN
  6
VOLLINIE
 62
    18
 10
-4.50890515730118
 20
-46.71489290604958
 30
0.0
 11
-4.377230626414772
 21
-46.76445168969444
 31
0.0
  0
LINE
  5
241
  8
BLATTANSICHT_1_GEOMETRIEAN
  6
VOLLINIE
 62
    18
 10
-4.643539062471828
 20
-46.67405215802733
 30
0.0
 11
-4.50890515730118
 21
-46.71489290604958
 31
0.0
  0
LINE
  5
242
  8
BLATTANSICHT_1_GEOMETRIEAN
  6
VOLLINIE
 62
    18
 10
-4.780555818861935
 20
-46.64210433198478
 30
0.0
 11
-4.643539062471828
 21
-46.67405215802733
 31
0.0
  0
LINE
  5
243
  8
BLATTANSICHT_1_GEOMETRIEAN
  6
VOLLINIE
 62
    18
 10
-4.947294606553291
 20
-46.61569550331347
 30
0.0
 11
-4.780555818861935
 21
-46.64210433198478
 31
0.0
  0
LINE
  5
244
  8
BLATTANSICHT_1_GEOMETRIEAN
  6
VOLLINIE
 62
    18
 10
-5.115591407023696
 20
-46.60245025873283
 30
0.0
 11
-4.947294606553291
 21
-46.61569550331347
 31
0.0
  0
LINE
  5
245
  8
BLATTANSICHT_1_GEOMETRIEAN
  6
VOLLINIE
 62
    18
 10
-5.284408614536948
 20
-46.60245025957995
 30
0.0
 11
-5.115591407023696
 21
-46.60245025873283
 31
0.0
  0
LINE
  5
246
  8
BLATTANSICHT_1_GEOMETRIEAN
  6
VOLLINIE
 62
    18
 10
-5.452705414874419
 20
-46.6156955058496
 30
0.0
 11
-5.284408614536948
 21
-46.60245025957995
 31
0.0
  0
LINE
  5
247
  8
BLATTANSICHT_1_GEOMETRIEAN
  6
VOLLINIE
 62
    18
 10
-5.619444202300744
 20
-46.6421043361943
 30
0.0
 11
-5.452705414874419
 21
-46.6156955058496
 31
0.0
  0
LINE
  5
248
  8
BLATTANSICHT_1_GEOMETRIEAN
  6
VOLLINIE
 62
    18
 10
-5.756460951125411
 20
-46.6740521616707
 30
0.0
 11
-5.619444202300744
 21
-46.6421043361943
 31
0.0
  0
LINE
  5
249
  8
BLATTANSICHT_1_GEOMETRIEAN
  6
VOLLINIE
 62
    18
 10
-5.891094848926302
 20
-46.71489290816353
 30
0.0
 11
-5.756460951125411
 21
-46.6740521616707
 31
0.0
  0
LINE
  5
24A
  8
BLATTANSICHT_1_GEOMETRIEAN
  6
VOLLINIE
 62
    18
 10
-6.022769372731672
 20
-46.76445168934089
 30
0.0
 11
-5.891094848926302
 21
-46.71489290816353
 31
0.0
  0
LINE
  5
24B
  8
BLATTANSICHT_1_GEOMETRIEAN
  6
VOLLINIE
 62
    18
 10
-6.150920680222929
 20
-46.82251629093532
 30
0.0
 11
-6.022769372731672
 21
-46.76445168934089
 31
0.0
  0
LINE
  5
24C
  8
BLATTANSICHT_1_GEOMETRIEAN
  6
VOLLINIE
 62
    18
 10
-6.274999999186084
 20
-46.88883806847241
 30
0.0
 11
-6.150920680222929
 21
-46.82251629093532
 31
0.0
  0
LINE
  5
24D
  8
BLATTANSICHT_1_GEOMETRIEAN
  6
VOLLINIE
 62
    18
 10
-6.394476002903872
 20
-46.96313302190577
 30
0.0
 11
-6.274999999186084
 21
-46.88883806847241
 31
0.0
  0
LINE
  5
24E
  8
BLATTANSICHT_1_GEOMETRIEAN
  6
VOLLINIE
 62
    18
 10
-6.508837076090543
 20
-47.04508300830854
 30
0.0
 11
-6.394476002903872
 21
-46.96313302190577
 31
0.0
  0
LINE
  5
24F
  8
BLATTANSICHT_1_GEOMETRIEAN
  6
VOLLINIE
 62
    18
 10
-6.617593507790597
 20
-47.13433710566936
 30
0.0
 11
-6.508837076090543
 21
-47.04508300830854
 31
0.0
  0
LINE
  5
250
  8
BLATTANSICHT_1_GEOMETRIEAN
  6
VOLLINIE
 62
    18
 10
-6.720279586251072
 20
-47.2305131142278
 30
0.0
 11
-6.617593507790597
 21
-47.13433710566936
 31
0.0
  0
LINE
  5
251
  8
BLATTANSICHT_1_GEOMETRIEAN
  6
VOLLINIE
 62
    18
 10
-6.834872831235442
 20
-47.35447938925198
 30
0.0
 11
-6.720279586251072
 21
-47.2305131142278
 31
0.0
  0
LINE
  5
252
  8
BLATTANSICHT_1_GEOMETRIEAN
  6
VOLLINIE
 62
    18
 10
-6.939386541740932
 20
-47.48705439992819
 30
0.0
 11
-6.834872831235442
 21
-47.35447938925198
 31
0.0
  0
LINE
  5
253
  8
BLATTANSICHT_1_GEOMETRIEAN
  6
VOLLINIE
 62
    18
 10
-7.033176355999184
 20
-47.62742077724421
 30
0.0
 11
-6.939386541740932
 21
-47.48705439992819
 31
0.0
  0
LINE
  5
254
  8
BLATTANSICHT_1_GEOMETRIEAN
  6
VOLLINIE
 62
    18
 10
-7.115664028627123
 20
-47.77471311582246
 30
0.0
 11
-7.033176355999184
 21
-47.62742077724421
 31
0.0
  0
LINE
  5
255
  8
BLATTANSICHT_1_GEOMETRIEAN
  6
VOLLINIE
 62
    18
 10
-7.186340995701948
 20
-47.92802330943177
 30
0.0
 11
-7.115664028627123
 21
-47.77471311582246
 31
0.0
  0
LINE
  5
256
  8
BLATTANSICHT_1_GEOMETRIEAN
  6
VOLLINIE
 62
    18
 10
-7.235899778397029
 20
-48.05969783662568
 30
0.0
 11
-7.186340995701948
 21
-47.92802330943177
 31
0.0
  0
LINE
  5
257
  8
BLATTANSICHT_1_GEOMETRIEAN
  6
VOLLINIE
 62
    18
 10
-7.27674052595053
 20
-48.19433173797756
 30
0.0
 11
-7.235899778397029
 21
-48.05969783662568
 31
0.0
  0
LINE
  5
258
  8
BLATTANSICHT_1_GEOMETRIEAN
  6
VOLLINIE
 62
    18
 10
-7.308688352016769
 20
-48.3313484904701
 30
0.0
 11
-7.27674052595053
 21
-48.19433173797756
 31
0.0
  0
LINE
  5
259
  8
BLATTANSICHT_1_GEOMETRIEAN
  6
VOLLINIE
 62
    18
 10
-7.331606451612852
 20
-48.47016137121685
 30
0.0
 11
-7.308688352016769
 21
-48.3313484904701
 31
0.0
  0
LINE
  5
25A
  8
BLATTANSICHT_1_GEOMETRIEAN
  6
VOLLINIE
 62
    18
 10
-7.345396684906446
 20
-48.61017595837126
 30
0.0
 11
-7.331606451612852
 21
-48.47016137121685
 31
0.0
  0
LINE
  5
25B
  8
BLATTANSICHT_1_GEOMETRIEAN
  6
VOLLINIE
 62
    18
 10
-7.349999999999998
 20
-48.75079268796082
 30
0.0
 11
-7.345396684906446
 21
-48.61017595837126
 31
0.0
  0
LINE
  5
25C
  8
BLATTANSICHT_1_GEOMETRIEAN
  6
VOLLINIE
 62
    18
 10
-6.150920680222929
 20
-50.67906908322242
 30
0.0
 11
-6.274999999186073
 21
-50.61274730568533
 31
0.0
  0
LINE
  5
25D
  8
BLATTANSICHT_1_GEOMETRIEAN
  6
VOLLINIE
 62
    18
 10
-6.022769372731672
 20
-50.73713368481685
 30
0.0
 11
-6.150920680222929
 21
-50.67906908322242
 31
0.0
  0
LINE
  5
25E
  8
BLATTANSICHT_1_GEOMETRIEAN
  6
VOLLINIE
 62
    18
 10
-6.274999999186073
 20
-50.61274730568533
 30
0.0
 11
-6.394476002903872
 21
-50.53845235225197
 31
0.0
  0
LINE
  5
25F
  8
BLATTANSICHT_1_GEOMETRIEAN
  6
VOLLINIE
 62
    18
 10
-5.891094848926302
 20
-50.78669246599421
 30
0.0
 11
-6.022769372731672
 21
-50.73713368481685
 31
0.0
  0
LINE
  5
260
  8
BLATTANSICHT_1_GEOMETRIEAN
  6
VOLLINIE
 62
    18
 10
-5.756460951125411
 20
-50.82753321248704
 30
0.0
 11
-5.891094848926302
 21
-50.78669246599421
 31
0.0
  0
LINE
  5
261
  8
BLATTANSICHT_1_GEOMETRIEAN
  6
VOLLINIE
 62
    18
 10
-5.619444202300744
 20
-50.85948103796344
 30
0.0
 11
-5.756460951125411
 21
-50.82753321248704
 31
0.0
  0
LINE
  5
262
  8
BLATTANSICHT_1_GEOMETRIEAN
  6
VOLLINIE
 62
    18
 10
-17.21711137318223
 20
-49.49494435722338
 30
0.0
 11
-17.26927875834132
 21
-49.3343896544094
 31
0.0
  0
LINE
  5
263
  8
BLATTANSICHT_1_GEOMETRIEAN
  6
VOLLINIE
 62
    18
 10
-17.15250782607194
 20
-49.65091111769109
 30
0.0
 11
-17.21711137318223
 21
-49.49494435722338
 31
0.0
  0
LINE
  5
264
  8
BLATTANSICHT_1_GEOMETRIEAN
  6
VOLLINIE
 62
    18
 10
-17.07586641934772
 20
-49.80132834890266
 30
0.0
 11
-17.15250782607194
 21
-49.65091111769109
 31
0.0
  0
LINE
  5
265
  8
BLATTANSICHT_1_GEOMETRIEAN
  6
VOLLINIE
 62
    18
 10
-16.98765967275185
 20
-49.94526867864034
 30
0.0
 11
-17.07586641934772
 21
-49.80132834890266
 31
0.0
  0
LINE
  5
266
  8
BLATTANSICHT_1_GEOMETRIEAN
  6
VOLLINIE
 62
    18
 10
-17.26927875834132
 20
-49.3343896544094
 30
0.0
 11
-17.30868835228319
 21
-49.17023688234825
 31
0.0
  0
LINE
  5
267
  8
BLATTANSICHT_1_GEOMETRIEAN
  6
VOLLINIE
 62
    18
 10
-16.90570968585621
 20
-50.05962975393491
 30
0.0
 11
-16.98765967275185
 21
-49.94526867864034
 31
0.0
  0
LINE
  5
268
  8
BLATTANSICHT_1_GEOMETRIEAN
  6
VOLLINIE
 62
    18
 10
-16.81645558776448
 20
-50.16838618762301
 30
0.0
 11
-16.90570968585621
 21
-50.05962975393491
 31
0.0
  0
LINE
  5
269
  8
BLATTANSICHT_1_GEOMETRIEAN
  6
VOLLINIE
 62
    18
 10
-16.72027957825107
 20
-50.27107226792995
 30
0.0
 11
-16.81645558776448
 21
-50.16838618762301
 31
0.0
  0
LINE
  5
26A
  8
BLATTANSICHT_1_GEOMETRIEAN
  6
VOLLINIE
 62
    18
 10
-16.59631330264691
 20
-50.38566551419763
 30
0.0
 11
-16.72027957825107
 21
-50.27107226792995
 31
0.0
  0
LINE
  5
26B
  8
BLATTANSICHT_1_GEOMETRIEAN
  6
VOLLINIE
 62
    18
 10
-16.46373829122872
 20
-50.49017922585693
 30
0.0
 11
-16.59631330264691
 21
-50.38566551419763
 31
0.0
  0
LINE
  5
26C
  8
BLATTANSICHT_1_GEOMETRIEAN
  6
VOLLINIE
 62
    18
 10
-16.32337191302586
 20
-50.58396904112247
 30
0.0
 11
-16.46373829122872
 21
-50.49017922585693
 31
0.0
  0
LINE
  5
26D
  8
BLATTANSICHT_1_GEOMETRIEAN
  6
VOLLINIE
 62
    18
 10
-16.17607957343469
 20
-50.6664567145961
 30
0.0
 11
-16.32337191302586
 21
-50.58396904112247
 31
0.0
  0
LINE
  5
26E
  8
BLATTANSICHT_1_GEOMETRIEAN
  6
VOLLINIE
 62
    18
 10
-16.02276937870654
 20
-50.73713368234198
 30
0.0
 11
-16.17607957343469
 21
-50.6664567145961
 31
0.0
  0
LINE
  5
26F
  8
BLATTANSICHT_1_GEOMETRIEAN
  6
VOLLINIE
 62
    18
 10
-15.89109484805568
 20
-50.78669246628974
 30
0.0
 11
-16.02276937870654
 21
-50.73713368234198
 31
0.0
  0
LINE
  5
270
  8
BLATTANSICHT_1_GEOMETRIEAN
  6
VOLLINIE
 62
    18
 10
-15.75646094310244
 20
-50.82753321463679
 30
0.0
 11
-15.89109484805568
 21
-50.78669246628974
 31
0.0
  0
LINE
  5
271
  8
BLATTANSICHT_1_GEOMETRIEAN
  6
VOLLINIE
 62
    18
 10
-15.6194441869097
 20
-50.85948104102491
 30
0.0
 11
-15.75646094310244
 21
-50.82753321463679
 31
0.0
  0
LINE
  5
272
  8
BLATTANSICHT_1_GEOMETRIEAN
  6
VOLLINIE
 62
    18
 10
-15.45270539929063
 20
-50.8858898701526
 30
0.0
 11
-15.6194441869097
 21
-50.85948104102491
 31
0.0
  0
LINE
  5
273
  8
BLATTANSICHT_1_GEOMETRIEAN
  6
VOLLINIE
 62
    18
 10
-15.28440859885648
 20
-50.89913511519388
 30
0.0
 11
-15.45270539929063
 21
-50.8858898701526
 31
0.0
  0
LINE
  5
274
  8
BLATTANSICHT_1_GEOMETRIEAN
  6
VOLLINIE
 62
    18
 10
-15.11559139134322
 20
-50.89913511480881
 30
0.0
 11
-15.28440859885648
 21
-50.89913511519388
 31
0.0
  0
LINE
  5
275
  8
BLATTANSICHT_1_GEOMETRIEAN
  6
VOLLINIE
 62
    18
 10
-14.94729459096951
 20
-50.8858898689998
 30
0.0
 11
-15.11559139134322
 21
-50.89913511480881
 31
0.0
  0
LINE
  5
276
  8
BLATTANSICHT_1_GEOMETRIEAN
  6
VOLLINIE
 62
    18
 10
-14.7805558034709
 20
-50.85948103911149
 30
0.0
 11
-14.94729459096951
 21
-50.8858898689998
 31
0.0
  0
LINE
  5
277
  8
BLATTANSICHT_1_GEOMETRIEAN
  6
VOLLINIE
 62
    18
 10
-20.217175416
 20
-56.35079268707887
 30
0.0
 11
0.0
 21
-56.35079268707887
 31
0.0
  0
LINE
  5
278
  8
BLATTANSICHT_1_GEOMETRIEAN
  6
VOLLINIE
 62
    18
 10
-5.452705414874419
 20
-50.88588986830813
 30
0.0
 11
-5.619444202300744
 21
-50.85948103796344
 31
0.0
  0
LINE
  5
279
  8
BLATTANSICHT_1_GEOMETRIEAN
  6
VOLLINIE
 62
    18
 10
-5.284408614536948
 20
-50.89913511457779
 30
0.0
 11
-5.452705414874419
 21
-50.88588986830813
 31
0.0
  0
LINE
  5
27A
  8
BLATTANSICHT_1_GEOMETRIEAN
  6
VOLLINIE
 62
    18
 10
-5.115591407023696
 20
-50.89913511542491
 30
0.0
 11
-5.284408614536948
 21
-50.89913511457779
 31
0.0
  0
LINE
  5
27B
  8
BLATTANSICHT_1_GEOMETRIEAN
  6
VOLLINIE
 62
    18
 10
-4.947294606553291
 20
-50.88588987084428
 30
0.0
 11
-5.115591407023696
 21
-50.89913511542491
 31
0.0
  0
LINE
  5
27C
  8
BLATTANSICHT_1_GEOMETRIEAN
  6
VOLLINIE
 62
    18
 10
-4.780555818861935
 20
-50.85948104217295
 30
0.0
 11
-4.947294606553291
 21
-50.88588987084428
 31
0.0
  0
LINE
  5
27D
  8
BLATTANSICHT_1_GEOMETRIEAN
  6
VOLLINIE
 62
    18
 10
-4.643539062471817
 20
-50.8275332161304
 30
0.0
 11
-4.780555818861935
 21
-50.85948104217295
 31
0.0
  0
LINE
  5
27E
  8
BLATTANSICHT_1_GEOMETRIEAN
  6
VOLLINIE
 62
    18
 10
-4.50890515730118
 20
-50.78669246810816
 30
0.0
 11
-4.643539062471817
 21
-50.8275332161304
 31
0.0
  0
LINE
  5
27F
  8
BLATTANSICHT_1_GEOMETRIEAN
  6
VOLLINIE
 62
    18
 10
-4.377230626414772
 20
-50.7371336844633
 30
0.0
 11
-4.50890515730118
 21
-50.78669246810816
 31
0.0
  0
LINE
  5
280
  8
BLATTANSICHT_1_GEOMETRIEAN
  6
VOLLINIE
 62
    18
 10
-4.249079318976092
 20
-50.67906908282743
 30
0.0
 11
-4.377230626414772
 21
-50.7371336844633
 31
0.0
  0
LINE
  5
281
  8
BLATTANSICHT_1_GEOMETRIEAN
  6
VOLLINIE
 62
    18
 10
-4.125000000067169
 20
-50.6127473052542
 30
0.0
 11
-4.249079318976092
 21
-50.67906908282743
 31
0.0
  0
LINE
  5
282
  8
BLATTANSICHT_1_GEOMETRIEAN
  6
VOLLINIE
 62
    18
 10
-4.005523996404788
 20
-50.53845235179003
 30
0.0
 11
-4.125000000067169
 21
-50.6127473052542
 31
0.0
  0
LINE
  5
283
  8
BLATTANSICHT_1_GEOMETRIEAN
  6
VOLLINIE
 62
    18
 10
-3.891162923282696
 20
-50.45650236536826
 30
0.0
 11
-4.005523996404788
 21
-50.53845235179003
 31
0.0
  0
LINE
  5
284
  8
BLATTANSICHT_1_GEOMETRIEAN
  6
VOLLINIE
 62
    18
 10
-3.782406491646609
 20
-50.36724826799482
 30
0.0
 11
-3.891162923282696
 21
-50.45650236536826
 31
0.0
  0
LINE
  5
285
  8
BLATTANSICHT_1_GEOMETRIEAN
  6
VOLLINIE
 62
    18
 10
-3.679720413248928
 20
-50.27107225942995
 30
0.0
 11
-3.782406491646609
 21
-50.36724826799482
 31
0.0
  0
LINE
  5
286
  8
BLATTANSICHT_1_GEOMETRIEAN
  6
VOLLINIE
 62
    18
 10
-3.565127168347466
 20
-50.14710598441741
 30
0.0
 11
-3.679720413248928
 21
-50.27107225942995
 31
0.0
  0
LINE
  5
287
  8
BLATTANSICHT_1_GEOMETRIEAN
  6
VOLLINIE
 62
    18
 10
-3.460613457919717
 20
-50.01453097376247
 30
0.0
 11
-3.565127168347466
 21
-50.14710598441741
 31
0.0
  0
LINE
  5
288
  8
BLATTANSICHT_1_GEOMETRIEAN
  6
VOLLINIE
 62
    18
 10
-3.366823643733059
 20
-49.87416459647659
 30
0.0
 11
-3.460613457919717
 21
-50.01453097376247
 31
0.0
  0
LINE
  5
289
  8
BLATTANSICHT_1_GEOMETRIEAN
  6
VOLLINIE
 62
    18
 10
-3.284335971169686
 20
-49.72687225793651
 30
0.0
 11
-3.366823643733059
 21
-49.87416459647659
 31
0.0
  0
LINE
  5
28A
  8
BLATTANSICHT_1_GEOMETRIEAN
  6
VOLLINIE
 62
    18
 10
-3.213659004151609
 20
-49.57356206437242
 30
0.0
 11
-3.284335971169686
 21
-49.72687225793651
 31
0.0
  0
LINE
  5
28B
  8
BLATTANSICHT_1_GEOMETRIEAN
  6
VOLLINIE
 62
    18
 10
-3.164100221500057
 20
-49.4418875372289
 30
0.0
 11
-3.213659004151609
 21
-49.57356206437242
 31
0.0
  0
LINE
  5
28C
  8
BLATTANSICHT_1_GEOMETRIEAN
  6
VOLLINIE
 62
    18
 10
-3.123259473982797
 20
-49.30725363593133
 30
0.0
 11
-3.164100221500057
 21
-49.4418875372289
 31
0.0
  0
LINE
  5
28D
  8
BLATTANSICHT_1_GEOMETRIEAN
  6
VOLLINIE
 62
    18
 10
-3.091311647945165
 20
-49.17023688349631
 30
0.0
 11
-3.123259473982797
 21
-49.30725363593133
 31
0.0
  0
LINE
  5
28E
  8
BLATTANSICHT_1_GEOMETRIEAN
  6
VOLLINIE
 62
    18
 10
-3.068393548425334
 20
-49.031424003231
 30
0.0
 11
-3.091311647945165
 21
-49.17023688349631
 31
0.0
  0
LINE
  5
28F
  8
BLATTANSICHT_1_GEOMETRIEAN
  6
VOLLINIE
 62
    18
 10
-3.054603315144587
 20
-48.89140941656514
 30
0.0
 11
-3.068393548425334
 21
-49.031424003231
 31
0.0
  0
LINE
  5
290
  8
BLATTANSICHT_1_GEOMETRIEAN
  6
VOLLINIE
 62
    18
 10
-3.049999999999994
 20
-48.75079268746498
 30
0.0
 11
-3.054603315144587
 21
-48.89140941656514
 31
0.0
  0
LINE
  5
291
  8
BLATTANSICHT_1_GEOMETRIEAN
  6
VOLLINIE
 62
    18
 10
-7.34539668482954
 20
-48.89140941695989
 30
0.0
 11
-7.349999999999998
 21
-48.75079268796082
 31
0.0
  0
LINE
  5
292
  8
BLATTANSICHT_1_GEOMETRIEAN
  6
VOLLINIE
 62
    18
 10
-7.331606451536115
 20
-49.03142400352382
 30
0.0
 11
-7.34539668482954
 21
-48.89140941695989
 31
0.0
  0
LINE
  5
293
  8
BLATTANSICHT_1_GEOMETRIEAN
  6
VOLLINIE
 62
    18
 10
-7.308688352016769
 20
-49.17023688368764
 30
0.0
 11
-7.331606451536115
 21
-49.03142400352382
 31
0.0
  0
LINE
  5
294
  8
BLATTANSICHT_1_GEOMETRIEAN
  6
VOLLINIE
 62
    18
 10
-7.27674052595053
 20
-49.30725363618018
 30
0.0
 11
-7.308688352016769
 21
-49.17023688368764
 31
0.0
  0
LINE
  5
295
  8
BLATTANSICHT_1_GEOMETRIEAN
  6
VOLLINIE
 62
    18
 10
-7.235899778397029
 20
-49.44188753753206
 30
0.0
 11
-7.27674052595053
 21
-49.30725363618018
 31
0.0
  0
LINE
  5
296
  8
BLATTANSICHT_1_GEOMETRIEAN
  6
VOLLINIE
 62
    18
 10
-7.186340995701948
 20
-49.57356206472598
 30
0.0
 11
-7.235899778397029
 21
-49.44188753753206
 31
0.0
  0
LINE
  5
297
  8
BLATTANSICHT_1_GEOMETRIEAN
  6
VOLLINIE
 62
    18
 10
-7.115664028627123
 20
-49.72687225833528
 30
0.0
 11
-7.186340995701948
 21
-49.57356206472598
 31
0.0
  0
LINE
  5
298
  8
BLATTANSICHT_1_GEOMETRIEAN
  6
VOLLINIE
 62
    18
 10
-7.033176355999184
 20
-49.87416459691353
 30
0.0
 11
-7.115664028627123
 21
-49.72687225833528
 31
0.0
  0
LINE
  5
299
  8
BLATTANSICHT_1_GEOMETRIEAN
  6
VOLLINIE
 62
    18
 10
-6.939386541740932
 20
-50.01453097422955
 30
0.0
 11
-7.033176355999184
 21
-49.87416459691353
 31
0.0
  0
LINE
  5
29A
  8
BLATTANSICHT_1_GEOMETRIEAN
  6
VOLLINIE
 62
    18
 10
-6.834872831235442
 20
-50.14710598490576
 30
0.0
 11
-6.939386541740932
 21
-50.01453097422955
 31
0.0
  0
LINE
  5
29B
  8
BLATTANSICHT_1_GEOMETRIEAN
  6
VOLLINIE
 62
    18
 10
-6.720279586251072
 20
-50.27107225992994
 30
0.0
 11
-6.834872831235442
 21
-50.14710598490576
 31
0.0
  0
LINE
  5
29C
  8
BLATTANSICHT_1_GEOMETRIEAN
  6
VOLLINIE
 62
    18
 10
-6.617593507790597
 20
-50.36724826848838
 30
0.0
 11
-6.720279586251072
 21
-50.27107225992994
 31
0.0
  0
LINE
  5
29D
  8
BLATTANSICHT_1_GEOMETRIEAN
  6
VOLLINIE
 62
    18
 10
-6.508837076090543
 20
-50.4565023658492
 30
0.0
 11
-6.617593507790597
 21
-50.36724826848838
 31
0.0
  0
LINE
  5
29E
  8
BLATTANSICHT_1_GEOMETRIEAN
  6
VOLLINIE
 62
    18
 10
-6.394476002903872
 20
-50.53845235225197
 30
0.0
 11
-6.508837076090543
 21
-50.4565023658492
 31
0.0
  0
LINE
  5
29F
  8
BLATTANSICHT_1_GEOMETRIEAN
  6
VOLLINIE
 62
    18
 10
-25.99619861672873
 20
-41.15079268707888
 30
0.0
 11
-25.99892539645327
 21
-41.15079268707888
 31
0.0
  0
LINE
  5
2A0
  8
BLATTANSICHT_1_GEOMETRIEAN
  6
VOLLINIE
 62
    18
 10
-25.9755965702277
 20
-41.15079268707888
 30
0.0
 11
-25.99619861672873
 21
-41.15079268707888
 31
0.0
  0
LINE
  5
2A1
  8
BLATTANSICHT_1_GEOMETRIEAN
  6
VOLLINIE
 62
    18
 10
-25.93729496447284
 20
-41.15079268707888
 30
0.0
 11
-25.9755965702277
 21
-41.15079268707888
 31
0.0
  0
LINE
  5
2A2
  8
BLATTANSICHT_1_GEOMETRIEAN
  6
VOLLINIE
 62
    18
 10
-25.88146950698684
 20
-41.15079268707888
 30
0.0
 11
-25.93729496447284
 21
-41.15079268707888
 31
0.0
  0
LINE
  5
2A3
  8
BLATTANSICHT_1_GEOMETRIEAN
  6
VOLLINIE
 62
    18
 10
-25.80850438363089
 20
-41.15079268707888
 30
0.0
 11
-25.88146950698684
 21
-41.15079268707888
 31
0.0
  0
LINE
  5
2A4
  8
BLATTANSICHT_1_GEOMETRIEAN
  6
VOLLINIE
 62
    18
 10
-25.71878378026619
 20
-41.15079268707888
 30
0.0
 11
-25.80850438363089
 21
-41.15079268707888
 31
0.0
  0
LINE
  5
2A5
  8
BLATTANSICHT_1_GEOMETRIEAN
  6
VOLLINIE
 62
    18
 10
-25.45865225235174
 20
-41.15079268707888
 30
0.0
 11
-25.55409923421463
 21
-41.15079268707888
 31
0.0
  0
LINE
  5
2A6
  8
BLATTANSICHT_1_GEOMETRIEAN
  6
VOLLINIE
 62
    18
 10
-24.99852376170685
 20
-41.15079268707888
 30
0.0
 11
-25.12454804982254
 21
-41.15079268707888
 31
0.0
  0
LINE
  5
2A7
  8
BLATTANSICHT_1_GEOMETRIEAN
  6
VOLLINIE
 62
    18
 10
-24.865649167
 20
-41.15079268707888
 30
0.0
 11
-24.99852376170685
 21
-41.15079268707888
 31
0.0
  0
LINE
  5
2A8
  8
BLATTANSICHT_1_GEOMETRIEAN
  6
VOLLINIE
 62
    18
 10
-25.12454804982254
 20
-41.15079268707888
 30
0.0
 11
-25.24366352598079
 21
-41.15079268707888
 31
0.0
  0
LINE
  5
2A9
  8
BLATTANSICHT_1_GEOMETRIEAN
  6
VOLLINIE
 62
    18
 10
-25.35510960248503
 20
-41.15079268707888
 30
0.0
 11
-25.45865225235174
 21
-41.15079268707888
 31
0.0
  0
LINE
  5
2AA
  8
BLATTANSICHT_1_GEOMETRIEAN
  6
VOLLINIE
 62
    18
 10
-25.24366352598079
 20
-41.15079268707888
 30
0.0
 11
-25.35510960248503
 21
-41.15079268707888
 31
0.0
  0
LINE
  5
2AB
  8
BLATTANSICHT_1_GEOMETRIEAN
  6
VOLLINIE
 62
    18
 10
-25.55409923421463
 20
-41.15079268707888
 30
0.0
 11
-25.64082576363331
 21
-41.15079268707888
 31
0.0
  0
LINE
  5
2AC
  8
BLATTANSICHT_1_GEOMETRIEAN
  6
VOLLINIE
 62
    18
 10
-25.64082576363331
 20
-41.15079268707888
 30
0.0
 11
-25.71878378026619
 21
-41.15079268707888
 31
0.0
  0
LINE
  5
2AD
  8
BLATTANSICHT_1_GEOMETRIEAN
  6
VOLLINIE
 62
    18
 10
-25.041292995082
 20
-56.35079268707887
 30
0.0
 11
-24.865649167
 21
-56.35079268707887
 31
0.0
  0
LINE
  5
2AE
  8
BLATTANSICHT_1_GEOMETRIEAN
  6
VOLLINIE
 62
    18
 10
-25.204758513532
 20
-56.35079268707887
 30
0.0
 11
-25.041292995082
 21
-56.35079268707887
 31
0.0
  0
LINE
  5
2AF
  8
BLATTANSICHT_1_GEOMETRIEAN
  6
VOLLINIE
 62
    18
 10
-25.35510960321299
 20
-56.35079268707887
 30
0.0
 11
-25.204758513532
 21
-56.35079268707887
 31
0.0
  0
LINE
  5
2B0
  8
BLATTANSICHT_1_GEOMETRIEAN
  6
VOLLINIE
 62
    18
 10
-25.49141014742399
 20
-56.35079268707887
 30
0.0
 11
-25.35510960321299
 21
-56.35079268707887
 31
0.0
  0
LINE
  5
2B1
  8
BLATTANSICHT_1_GEOMETRIEAN
  6
VOLLINIE
 62
    18
 10
-25.61289119245999
 20
-56.35079268707887
 30
0.0
 11
-25.49141014742399
 21
-56.35079268707887
 31
0.0
  0
LINE
  5
2B2
  8
BLATTANSICHT_1_GEOMETRIEAN
  6
VOLLINIE
 62
    18
 10
-25.71878378461599
 20
-56.35079268707887
 30
0.0
 11
-25.61289119245999
 21
-56.35079268707887
 31
0.0
  0
LINE
  5
2B3
  8
BLATTANSICHT_1_GEOMETRIEAN
  6
VOLLINIE
 62
    18
 10
-25.80850438353199
 20
-56.35079268707887
 30
0.0
 11
-25.71878378461599
 21
-56.35079268707887
 31
0.0
  0
LINE
  5
2B4
  8
BLATTANSICHT_1_GEOMETRIEAN
  6
VOLLINIE
 62
    18
 10
-25.88146950116
 20
-56.35079268707887
 30
0.0
 11
-25.80850438353199
 21
-56.35079268707887
 31
0.0
  0
LINE
  5
2B5
  8
BLATTANSICHT_1_GEOMETRIEAN
  6
VOLLINIE
 62
    18
 10
-25.93729495817199
 20
-56.35079268707887
 30
0.0
 11
-25.88146950116
 21
-56.35079268707887
 31
0.0
  0
LINE
  5
2B6
  8
BLATTANSICHT_1_GEOMETRIEAN
  6
VOLLINIE
 62
    18
 10
-25.97559657523999
 20
-56.35079268707887
 30
0.0
 11
-25.93729495817199
 21
-56.35079268707887
 31
0.0
  0
LINE
  5
2B7
  8
BLATTANSICHT_1_GEOMETRIEAN
  6
VOLLINIE
 62
    18
 10
-25.99619861673899
 20
-56.35079268707887
 30
0.0
 11
-25.97559657523999
 21
-56.35079268707887
 31
0.0
  0
LINE
  5
2B8
  8
BLATTANSICHT_1_GEOMETRIEAN
  6
VOLLINIE
 62
    18
 10
-25.998925399356
 20
-56.35079268707887
 30
0.0
 11
-25.99619861673899
 21
-56.35079268707887
 31
0.0
  0
LINE
  5
2B9
  8
BLATTANSICHT_1_GEOMETRIEAN
  6
VOLLINIE
 62
    18
 10
-25.99892539645327
 20
-41.15079268707888
 30
0.0
 11
-25.998925399356
 21
-56.35079268707887
 31
0.0
  0
LINE
  5
2BA
  8
BLATTANSICHT_1_GEOMETRIEAN
  6
VOLLINIE
 62
    18
 10
-23.45545954749766
 20
-41.15079268707888
 30
0.0
 11
-23.56455619783117
 21
-41.15079268707888
 31
0.0
  0
LINE
  5
2BB
  8
BLATTANSICHT_1_GEOMETRIEAN
  6
VOLLINIE
 62
    18
 10
-24.47552747874784
 20
-41.15079268707888
 30
0.0
 11
-24.49192724869704
 21
-41.15079268707888
 31
0.0
  0
LINE
  5
2BC
  8
BLATTANSICHT_1_GEOMETRIEAN
  6
VOLLINIE
 62
    18
 10
-21.15
 20
-41.15079268707888
 30
0.0
 11
-24.865649167
 21
-41.15079268707888
 31
0.0
  0
LINE
  5
2BD
  8
BLATTANSICHT_1_GEOMETRIEAN
  6
VOLLINIE
 62
    18
 10
-24.865649167
 20
-41.15079268707888
 30
0.0
 11
-24.865649167
 21
-56.35079268707887
 31
0.0
  0
LINE
  5
2BE
  8
BLATTANSICHT_1_GEOMETRIEAN
  6
VOLLINIE
 62
    18
 10
-24.865649167
 20
-56.35079268707887
 30
0.0
 11
-21.15
 21
-56.35079268707887
 31
0.0
  0
LINE
  5
2BF
  8
BLATTANSICHT_1_GEOMETRIEAN
  6
VOLLINIE
 62
    18
 10
-21.15
 20
-41.15079268707888
 30
0.0
 11
-21.15
 21
-56.35079268707887
 31
0.0
  0
LINE
  5
2C0
  8
BLATTANSICHT_1_GEOMETRIEAN
  6
VOLLINIE
 62
    18
 10
-20.217175416
 20
-41.15079268707888
 30
0.0
 11
-21.15
 21
-41.15079268707888
 31
0.0
  0
LINE
  5
2C1
  8
BLATTANSICHT_1_GEOMETRIEAN
  6
VOLLINIE
 62
    18
 10
-21.15
 20
-56.35079268707887
 30
0.0
 11
-20.217175416
 21
-56.35079268707887
 31
0.0
  0
LINE
  5
2C2
  8
BLATTANSICHT_1_GEOMETRIEAN
  6
VOLLINIE
 62
    18
 10
-20.217175416
 20
-56.35079268707887
 30
0.0
 11
-20.217175416
 21
-41.15079268707888
 31
0.0
  0
VIEWPORT
  5
62
 67
     1
  8
0
 10
0.0
 20
0.0
 30
0.0
 40
1.0
 41
1.0
 68
     1
 69
     1
1001
ACAD
1000
MVIEW
1002
{
1070
    16
1010
0.0
1020
0.0
1030
0.0
1020
0.0
1030
0.0
1010
0.0
1020
0.0
1030
1.0
1020
0.0
1030
1.0
1040
0.0
1040
1.0
1040
0.0
1040
0.0
1040
50.0
1040
0.0
1040
0.0
1070
     0
1070
   100
1070
     0
1070
     3
1070
     0
1070
     0
1070
     0
1070
     0
1040
0.0
1040
0.0
1040
0.0
1040
0.5
1040
0.5
1040
0.0
1040
0.0
1070
     0
1002
{
1002
}
1002
}
  0
ENDSEC
  0
EOF
