  0
SECTION
  2
HEADER
  9
$ACADVER
  1
AC1009
  9
$DWGCODEPAGE
  3
ansi_1252
  9
$INSBASE
 10
0.0
 20
0.0
 30
0.0
  9
$EXTMIN
 10
-71.92929444434733
 20
-98.38669949732837
 30
-0.0000000000000042
  9
$EXTMAX
 10
142.3620392027181
 20
180.7869791196888
 30
39.15667764132425
  9
$LIMMIN
 10
0.0
 20
0.0
  9
$LIMMAX
 10
12.0
 20
9.0
  9
$ORTHOMODE
 70
     0
  9
$REGENMODE
 70
     1
  9
$FILLMODE
 70
     1
  9
$QTEXTMODE
 70
     0
  9
$MIRRTEXT
 70
     1
  9
$DRAGMODE
 70
     2
  9
$LTSCALE
 40
1.0
  9
$OSMODE
 70
    37
  9
$ATTMODE
 70
     1
  9
$TEXTSIZE
 40
0.2
  9
$TRACEWID
 40
0.05
  9
$TEXTSTYLE
  7
STANDARD
  9
$CLAYER
  8
0
  9
$CELTYPE
  6
BYLAYER
  9
$CECOLOR
 62
   256
  9
$DIMSCALE
 40
1.0
  9
$DIMASZ
 40
0.18
  9
$DIMEXO
 40
0.0625
  9
$DIMDLI
 40
0.38
  9
$DIMRND
 40
0.0
  9
$DIMDLE
 40
0.0
  9
$DIMEXE
 40
0.18
  9
$DIMTP
 40
0.0
  9
$DIMTM
 40
0.0
  9
$DIMTXT
 40
0.18
  9
$DIMCEN
 40
0.09
  9
$DIMTSZ
 40
0.0
  9
$DIMTOL
 70
     0
  9
$DIMLIM
 70
     0
  9
$DIMTIH
 70
     1
  9
$DIMTOH
 70
     1
  9
$DIMSE1
 70
     0
  9
$DIMSE2
 70
     0
  9
$DIMTAD
 70
     0
  9
$DIMZIN
 70
     0
  9
$DIMBLK
  1

  9
$DIMASO
 70
     1
  9
$DIMSHO
 70
     1
  9
$DIMPOST
  1

  9
$DIMAPOST
  1

  9
$DIMALT
 70
     0
  9
$DIMALTD
 70
     2
  9
$DIMALTF
 40
25.4
  9
$DIMLFAC
 40
1.0
  9
$DIMTOFL
 70
     0
  9
$DIMTVP
 40
0.0
  9
$DIMTIX
 70
     0
  9
$DIMSOXD
 70
     0
  9
$DIMSAH
 70
     0
  9
$DIMBLK1
  1

  9
$DIMBLK2
  1

  9
$DIMSTYLE
  2
STANDARD
  9
$DIMCLRD
 70
     0
  9
$DIMCLRE
 70
     0
  9
$DIMCLRT
 70
     0
  9
$DIMTFAC
 40
1.0
  9
$DIMGAP
 40
0.09
  9
$LUNITS
 70
     2
  9
$LUPREC
 70
     4
  9
$SKETCHINC
 40
0.1
  9
$FILLETRAD
 40
0.5
  9
$AUNITS
 70
     0
  9
$AUPREC
 70
     0
  9
$MENU
  1
.
  9
$ELEVATION
 40
0.0
  9
$PELEVATION
 40
0.0
  9
$THICKNESS
 40
0.0
  9
$LIMCHECK
 70
     0
  9
$CHAMFERA
 40
0.5
  9
$CHAMFERB
 40
0.5
  9
$SKPOLY
 70
     0
  9
$TDCREATE
 40
2305814.817256944
  9
$TDUPDATE
 40
2305814.817256956
  9
$TDINDWG
 40
0.0000000116
  9
$TDUSRTIMER
 40
0.0000000116
  9
$USRTIMER
 70
     1
  9
$ANGBASE
 50
0.0
  9
$ANGDIR
 70
     0
  9
$PDMODE
 70
     0
  9
$PDSIZE
 40
0.0
  9
$PLINEWID
 40
0.0
  9
$COORDS
 70
     1
  9
$SPLFRAME
 70
     0
  9
$SPLINETYPE
 70
     6
  9
$SPLINESEGS
 70
     8
  9
$ATTDIA
 70
     0
  9
$ATTREQ
 70
     1
  9
$HANDLING
 70
     1
  9
$HANDSEED
  5
46A
  9
$SURFTAB1
 70
     6
  9
$SURFTAB2
 70
     6
  9
$SURFTYPE
 70
     6
  9
$SURFU
 70
     6
  9
$SURFV
 70
     6
  9
$UCSNAME
  2

  9
$UCSORG
 10
0.0
 20
0.0
 30
0.0
  9
$UCSXDIR
 10
1.0
 20
0.0
 30
0.0
  9
$UCSYDIR
 10
0.0
 20
1.0
 30
0.0
  9
$PUCSNAME
  2

  9
$PUCSORG
 10
0.0
 20
0.0
 30
0.0
  9
$PUCSXDIR
 10
1.0
 20
0.0
 30
0.0
  9
$PUCSYDIR
 10
0.0
 20
1.0
 30
0.0
  9
$USERI1
 70
     0
  9
$USERI2
 70
     0
  9
$USERI3
 70
     0
  9
$USERI4
 70
     0
  9
$USERI5
 70
     0
  9
$USERR1
 40
0.0
  9
$USERR2
 40
0.0
  9
$USERR3
 40
0.0
  9
$USERR4
 40
0.0
  9
$USERR5
 40
0.0
  9
$WORLDVIEW
 70
     1
  9
$SHADEDGE
 70
     3
  9
$SHADEDIF
 70
    70
  9
$TILEMODE
 70
     1
  9
$MAXACTVP
 70
    64
  9
$PLIMCHECK
 70
     0
  9
$PEXTMIN
 10
1.000000000000000E+20
 20
1.000000000000000E+20
 30
1.000000000000000E+20
  9
$PEXTMAX
 10
-1.000000000000000E+20
 20
-1.000000000000000E+20
 30
-1.000000000000000E+20
  9
$PLIMMIN
 10
0.0
 20
0.0
  9
$PLIMMAX
 10
12.0
 20
9.0
  9
$UNITMODE
 70
     0
  9
$VISRETAIN
 70
     1
  9
$PLINEGEN
 70
     0
  9
$PSLTSCALE
 70
     1
  0
ENDSEC
  0
SECTION
  2
TABLES
  0
TABLE
  2
VPORT
 70
     1
  0
VPORT
  2
*ACTIVE
 70
     0
 10
0.0
 20
0.0
 11
1.0
 21
1.0
 12
0.0
 22
0.0
 13
0.0
 23
0.0
 14
0.5
 24
0.5
 15
0.5
 25
0.5
 16
0.0
 26
0.0
 36
1.0
 17
34.12332554668374
 27
-29.29574682320774
 37
0.0
 40
80.16332351931787
 41
1.60505906655955
 42
50.0
 43
0.0
 44
0.0
 50
0.0
 51
0.0
 71
     0
 72
   100
 73
     1
 74
     3
 75
     0
 76
     0
 77
     0
 78
     0
  0
ENDTAB
  0
TABLE
  2
LTYPE
 70
    12
  0
LTYPE
  2
CONTINUOUS
 70
     0
  3
Solid line
 72
    65
 73
     0
 40
0.0
  0
LTYPE
  2
VOLLINIE
 70
     0
  3
____________________
 72
    65
 73
     0
 40
0.0
  0
LTYPE
  2
ZWEISTRICHPUNKT
 70
     0
  3
__ __ . __ __ . __ 
 72
    65
 73
     6
 40
22.225
 49
0.25
 49
-0.125
 49
0.25
 49
-0.125
 49
0.0
 49
-0.125
  0
LTYPE
  2
STRICHPUNKT_LANG
 70
     0
  3
___ _ ___ _ ___ _ _
 72
    65
 73
     4
 40
28.575
 49
0.75
 49
-0.125
 49
0.125
 49
-0.125
  0
LTYPE
  2
STRICHPUNKT
 70
     0
  3
_._._._._._._._._._
 72
    65
 73
     4
 40
12.7
 49
0.25
 49
-0.125
 49
0.0
 49
-0.125
  0
LTYPE
  2
STRICHLINIE_LANG
 70
     0
  3
_ _ _ _ _ _ _ _ _ _
 72
    65
 73
     2
 40
9.524999999999999
 49
0.25
 49
-0.125
  0
LTYPE
  2
STRICHZWEIPKT__KURZ
 70
     0
  3
__..__..__..__..__.
 72
    65
 73
     6
 40
15.875
 49
0.25
 49
-0.125
 49
0.0
 49
-0.125
 49
0.0
 49
-0.125
  0
LTYPE
  2
GEPUNKTET
 70
     0
  3
...................
 72
    65
 73
     2
 40
3.175
 49
0.0
 49
-0.125
  0
LTYPE
  2
STRICHLINIE
 70
     0
  3
__ __ __ __ __ __ _
 72
    65
 73
     2
 40
4.762499999999999
 49
0.125
 49
-0.0625
  0
LTYPE
  2
STRICHZWEIPUNKT
 70
     0
  3
___ _ _ ___ _ _ ___
 72
    65
 73
     6
 40
31.75
 49
0.625
 49
-0.125
 49
0.125
 49
-0.125
 49
0.125
 49
-0.125
  0
LTYPE
  2
STRICHZWEIPKT__LANG
 70
     0
  3
________ _ _ ______
 72
    65
 73
     6
 40
37.2745
 49
1.0
 49
-0.0725
 49
0.125
 49
-0.0725
 49
0.125
 49
-0.0725
  0
LTYPE
  2
STRICHLINIE_KURZ
 70
     0
  3
_ _ _ _ _ _ _ _ _ _
 72
    65
 73
     2
 40
3.682999999999999
 49
0.0725
 49
-0.0725
  0
ENDTAB
  0
TABLE
  2
LAYER
 70
     5
  0
LAYER
  2
0
 70
     0
 62
     7
  6
CONTINUOUS
  0
LAYER
  2
IGES-IMPORT_CS_CT-0120-6
 70
     0
 62
    -7
  6
CONTINUOUS
  0
LAYER
  2
BLATTANSICHT_1
 70
     0
 62
     7
  6
CONTINUOUS
  0
LAYER
  2
BLATTANSICHT_1_SCHRIFTKOPF
 70
     0
 62
     7
  6
CONTINUOUS
  0
LAYER
  2
BLATTANSICHT_1_GEOMETRIEAN
 70
     0
 62
     7
  6
CONTINUOUS
  0
ENDTAB
  0
TABLE
  2
STYLE
 70
     1
  0
STYLE
  2
STANDARD
 70
     0
 40
0.0
 41
1.0
 50
0.0
 71
     0
 42
0.2
  3
txt
  4

  0
ENDTAB
  0
TABLE
  2
VIEW
 70
     0
  0
ENDTAB
  0
TABLE
  2
UCS
 70
     0
  0
ENDTAB
  0
TABLE
  2
APPID
 70
     2
  0
APPID
  2
ACAD
 70
     0
  0
APPID
  2
PUNCH__SOFTWARE_VIACAD
 70
     0
  0
ENDTAB
  0
TABLE
  2
DIMSTYLE
 70
     1
  0
DIMSTYLE
  2
STANDARD
 70
     0
  3

  4

  5

  6

  7

 40
1.0
 41
0.18
 42
0.0625
 43
0.38
 44
0.18
 45
0.0
 46
0.0
 47
0.0
 48
0.0
140
0.18
141
0.09
142
0.0
143
25.4
144
1.0
145
0.0
146
1.0
147
0.09
 71
     0
 72
     0
 73
     1
 74
     1
 75
     0
 76
     0
 77
     0
 78
     0
170
     0
171
     2
172
     0
173
     0
174
     0
175
     0
176
     0
177
     0
178
     0
  0
ENDTAB
  0
ENDSEC
  0
SECTION
  2
BLOCKS
  0
BLOCK
  8
0
  2
$MODEL_SPACE
 70
     0
 10
0.0
 20
0.0
 30
0.0
  3
$MODEL_SPACE
  1

  0
ENDBLK
  5
21
  8
0
  0
BLOCK
 67
     1
  8
0
  2
$PAPER_SPACE
 70
     0
 10
0.0
 20
0.0
 30
0.0
  3
$PAPER_SPACE
  1

  0
ENDBLK
  5
1D
 67
     1
  8
0
  0
ENDSEC
  0
SECTION
  2
ENTITIES
  0
LINE
  5
6E
  8
BLATTANSICHT_1_GEOMETRIEAN
  6
VOLLINIE
 62
    18
 10
-11.38651588667641
 20
-35.05578406597035
 30
0.0
 11
-11.47410227678381
 21
-35.2527784066467
 31
0.0
  0
LINE
  5
6F
  8
BLATTANSICHT_1_GEOMETRIEAN
  6
VOLLINIE
 62
    18
 10
-11.47410227678381
 20
-35.2527784066467
 30
0.0
 11
-11.58682488971523
 21
-35.5393727751448
 31
0.0
  0
LINE
  5
70
  8
BLATTANSICHT_1_GEOMETRIEAN
  6
VOLLINIE
 62
    18
 10
-10.73677253279553
 20
-33.97568582812723
 30
0.0
 11
-10.76818085723733
 21
-34.0176571800765
 31
0.0
  0
LINE
  5
71
  8
BLATTANSICHT_1_GEOMETRIEAN
  6
VOLLINIE
 62
    18
 10
-10.58724710301388
 20
-33.78576181781342
 30
0.0
 11
-10.73677253279553
 21
-33.97568582812723
 31
0.0
  0
LINE
  5
72
  8
BLATTANSICHT_1_GEOMETRIEAN
  6
VOLLINIE
 62
    18
 10
-10.55331865716443
 20
-33.74529555231925
 30
0.0
 11
-10.58724710301388
 21
-33.78576181781342
 31
0.0
  0
LINE
  5
73
  8
BLATTANSICHT_1_GEOMETRIEAN
  6
VOLLINIE
 62
    18
 10
-10.39499377443674
 20
-33.56282171832246
 30
0.0
 11
-10.50509866904233
 21
-33.68778384517731
 31
0.0
  0
LINE
  5
74
  8
BLATTANSICHT_1_GEOMETRIEAN
  6
VOLLINIE
 62
    18
 10
-10.25614070750075
 20
-33.41468997062521
 30
0.0
 11
-10.39499377443674
 21
-33.56282171832246
 31
0.0
  0
LINE
  5
75
  8
BLATTANSICHT_1_GEOMETRIEAN
  6
VOLLINIE
 62
    18
 10
-6.685998913102383
 20
-31.63697058837116
 30
0.0
 11
-6.990558232761434
 21
-31.68264712791441
 31
0.0
  0
LINE
  5
76
  8
BLATTANSICHT_1_GEOMETRIEAN
  6
VOLLINIE
 62
    18
 10
-6.47160362387261
 20
-31.61432545770117
 30
0.0
 11
-6.685998913102383
 21
-31.63697058837116
 31
0.0
  0
LINE
  5
77
  8
BLATTANSICHT_1_GEOMETRIEAN
  6
VOLLINIE
 62
    18
 10
-8.456431238434794
 20
-32.14070201548563
 30
0.0
 11
-8.484378735606677
 21
-32.1536469223402
 31
0.0
  0
LINE
  5
78
  8
BLATTANSICHT_1_GEOMETRIEAN
  6
VOLLINIE
 62
    18
 10
-8.787230510130158
 20
-32.30542048068806
 30
0.0
 11
-8.948669164769548
 21
-32.39534122118782
 31
0.0
  0
LINE
  5
79
  8
BLATTANSICHT_1_GEOMETRIEAN
  6
VOLLINIE
 62
    18
 10
-8.484378735606677
 20
-32.1536469223402
 30
0.0
 11
-8.787230510130158
 21
-32.30542048068806
 31
0.0
  0
LINE
  5
7A
  8
BLATTANSICHT_1_GEOMETRIEAN
  6
VOLLINIE
 62
    18
 10
-9.107262146378233
 20
-32.49019083202509
 30
0.0
 11
-9.390127782573181
 21
-32.67658137741483
 31
0.0
  0
LINE
  5
7B
  8
BLATTANSICHT_1_GEOMETRIEAN
  6
VOLLINIE
 62
    18
 10
-8.948669164769548
 20
-32.39534122118782
 30
0.0
 11
-9.107262146378233
 21
-32.49019083202509
 31
0.0
  0
LINE
  5
7C
  8
BLATTANSICHT_1_GEOMETRIEAN
  6
VOLLINIE
 62
    18
 10
-9.415312157563601
 20
-32.69431217226544
 30
0.0
 11
-9.710212004478736
 21
-32.91701019924875
 31
0.0
  0
LINE
  5
7D
  8
BLATTANSICHT_1_GEOMETRIEAN
  6
VOLLINIE
 62
    18
 10
-9.390127782573181
 20
-32.67658137741483
 30
0.0
 11
-9.415312157563601
 21
-32.69431217226544
 31
0.0
  0
LINE
  5
7E
  8
BLATTANSICHT_1_GEOMETRIEAN
  6
VOLLINIE
 62
    18
 10
-9.710212004478736
 20
-32.91701019924875
 30
0.0
 11
-9.805394822384503
 21
-32.99522698362026
 31
0.0
  0
LINE
  5
7F
  8
BLATTANSICHT_1_GEOMETRIEAN
  6
VOLLINIE
 62
    18
 10
-9.990843030993435
 20
-33.15744014307882
 30
0.0
 11
-10.19130986061411
 21
-33.34885294502277
 31
0.0
  0
LINE
  5
80
  8
BLATTANSICHT_1_GEOMETRIEAN
  6
VOLLINIE
 62
    18
 10
-9.805394822384503
 20
-32.99522698362026
 30
0.0
 11
-9.990843030993435
 21
-33.15744014307882
 31
0.0
  0
LINE
  5
81
  8
BLATTANSICHT_1_GEOMETRIEAN
  6
VOLLINIE
 62
    18
 10
-11.31964891724446
 20
-34.91706351174354
 30
0.0
 11
-11.38651588667641
 21
-35.05578406597035
 31
0.0
  0
LINE
  5
82
  8
BLATTANSICHT_1_GEOMETRIEAN
  6
VOLLINIE
 62
    18
 10
-11.14482158681466
 20
-34.591493637732
 30
0.0
 11
-11.31964891724446
 21
-34.91706351174354
 31
0.0
  0
LINE
  5
83
  8
BLATTANSICHT_1_GEOMETRIEAN
  6
VOLLINIE
 62
    18
 10
-11.16892601567005
 20
-34.63363657480758
 30
0.0
 11
-11.31964891724446
 21
-34.91706351174354
 31
0.0
  0
LINE
  5
84
  8
BLATTANSICHT_1_GEOMETRIEAN
  6
VOLLINIE
 62
    18
 10
-11.14482159048837
 20
-34.59149364409507
 30
0.0
 11
-11.16892601567005
 21
-34.63363657480758
 31
0.0
  0
LINE
  5
85
  8
BLATTANSICHT_1_GEOMETRIEAN
  6
VOLLINIE
 62
    18
 10
-10.9502834804408
 20
-34.27730380863974
 30
0.0
 11
-11.14482158681466
 21
-34.591493637732
 31
0.0
  0
LINE
  5
86
  8
BLATTANSICHT_1_GEOMETRIEAN
  6
VOLLINIE
 62
    18
 10
-10.86358142968385
 20
-34.15003502092126
 30
0.0
 11
-10.9502834804408
 21
-34.27730380863974
 31
0.0
  0
LINE
  5
87
  8
BLATTANSICHT_1_GEOMETRIEAN
  6
VOLLINIE
 62
    18
 10
-10.1917291088579
 20
-33.34927225334214
 30
0.0
 11
-10.25614070750075
 21
-33.41468997062521
 31
0.0
  0
LINE
  5
88
  8
BLATTANSICHT_1_GEOMETRIEAN
  6
VOLLINIE
 62
    18
 10
-10.19081876496432
 20
-33.34840293879319
 30
0.0
 11
-10.19130039309877
 21
-33.34886285987071
 31
0.0
  0
LINE
  5
89
  8
BLATTANSICHT_1_GEOMETRIEAN
  6
VOLLINIE
 62
    18
 10
-10.19130986061411
 20
-33.34885294502277
 30
0.0
 11
-10.25614070750075
 21
-33.41468997062521
 31
0.0
  0
LINE
  5
8A
  8
BLATTANSICHT_1_GEOMETRIEAN
  6
VOLLINIE
 62
    18
 10
-10.50509866904233
 20
-33.68778384517731
 30
0.0
 11
-10.54493582268896
 21
-33.73476798215912
 31
0.0
  0
LINE
  5
8B
  8
BLATTANSICHT_1_GEOMETRIEAN
  6
VOLLINIE
 62
    18
 10
-10.25614070750075
 20
-33.41468997062521
 30
0.0
 11
-10.50509866904233
 21
-33.68778384517731
 31
0.0
  0
LINE
  5
8C
  8
BLATTANSICHT_1_GEOMETRIEAN
  6
VOLLINIE
 62
    18
 10
-10.73677253279553
 20
-33.97568582812723
 30
0.0
 11
-10.86358142968385
 21
-34.15003502092126
 31
0.0
  0
LINE
  5
8D
  8
BLATTANSICHT_1_GEOMETRIEAN
  6
VOLLINIE
 62
    18
 10
-10.54493582268896
 20
-33.73476798215912
 30
0.0
 11
-10.73677253279553
 21
-33.97568582812723
 31
0.0
  0
LINE
  5
8E
  8
BLATTANSICHT_1_GEOMETRIEAN
  6
VOLLINIE
 62
    18
 10
-11.31964891724446
 20
-34.91706351174354
 30
0.0
 11
-11.37248536730934
 21
-35.02591031152651
 31
0.0
  0
LINE
  5
8F
  8
BLATTANSICHT_1_GEOMETRIEAN
  6
VOLLINIE
 62
    18
 10
-11.37248536730934
 20
-35.02591031152651
 30
0.0
 11
-11.37733570699376
 21
-35.03673909317887
 31
0.0
  0
LINE
  5
90
  8
BLATTANSICHT_1_GEOMETRIEAN
  6
VOLLINIE
 62
    18
 10
-11.47410227678382
 20
-35.2527784066467
 30
0.0
 11
-11.54684160158645
 21
-35.43268253463165
 31
0.0
  0
LINE
  5
91
  8
BLATTANSICHT_1_GEOMETRIEAN
  6
VOLLINIE
 62
    18
 10
-11.54684160158645
 20
-35.43268253463165
 30
0.0
 11
-11.57677602588787
 21
-35.51382379515016
 31
0.0
  0
LINE
  5
92
  8
BLATTANSICHT_1_GEOMETRIEAN
  6
VOLLINIE
 62
    18
 10
-11.60759577594176
 20
-35.59736484952482
 30
0.0
 11
-11.71962302815101
 21
-35.94951570597027
 31
0.0
  0
LINE
  5
93
  8
BLATTANSICHT_1_GEOMETRIEAN
  6
VOLLINIE
 62
    18
 10
-11.58682488971523
 20
-35.5393727751448
 30
0.0
 11
-11.60759577594176
 21
-35.59736484952482
 31
0.0
  0
LINE
  5
94
  8
BLATTANSICHT_1_GEOMETRIEAN
  6
VOLLINIE
 62
    18
 10
-11.71962302815101
 20
-35.94951570597027
 30
0.0
 11
-11.744224123474
 21
-36.03857936319383
 31
0.0
  0
LINE
  5
95
  8
BLATTANSICHT_1_GEOMETRIEAN
  6
VOLLINIE
 62
    18
 10
-11.60759577594176
 20
-35.59736484952482
 30
0.0
 11
-11.6904448644552
 21
-35.85022633079895
 31
0.0
  0
LINE
  5
96
  8
BLATTANSICHT_1_GEOMETRIEAN
  6
VOLLINIE
 62
    18
 10
-11.6904448644552
 20
-35.85022633079895
 30
0.0
 11
-11.71962302815101
 21
-35.94951570597027
 31
0.0
  0
LINE
  5
97
  8
BLATTANSICHT_1_GEOMETRIEAN
  6
VOLLINIE
 62
    18
 10
-11.8097590756717
 20
-36.30789514716379
 30
0.0
 11
-11.85751568474816
 21
-36.54960456656788
 31
0.0
  0
LINE
  5
98
  8
BLATTANSICHT_1_GEOMETRIEAN
  6
VOLLINIE
 62
    18
 10
-11.744224123474
 20
-36.03857936319383
 30
0.0
 11
-11.8097590756717
 21
-36.30789514716379
 31
0.0
  0
LINE
  5
99
  8
BLATTANSICHT_1_GEOMETRIEAN
  6
VOLLINIE
 62
    18
 10
-11.93234397387019
 20
-37.14918625224448
 30
0.0
 11
-11.94582348739429
 21
-37.40672329506575
 31
0.0
  0
LINE
  5
9A
  8
BLATTANSICHT_1_GEOMETRIEAN
  6
VOLLINIE
 62
    18
 10
-11.9263465284816
 20
-37.07717433633802
 30
0.0
 11
-11.93234397387019
 21
-37.14918625224448
 31
0.0
  0
LINE
  5
9B
  8
BLATTANSICHT_1_GEOMETRIEAN
  6
VOLLINIE
 62
    18
 10
-8.487123454685138
 20
-32.15502243279201
 30
0.0
 11
-8.514698442659954
 21
-32.16788840935742
 31
0.0
  0
LINE
  5
9C
  8
BLATTANSICHT_1_GEOMETRIEAN
  6
VOLLINIE
 62
    18
 10
-8.514698442659954
 20
-32.16788840935742
 30
0.0
 11
-8.787230510130158
 21
-32.30542048068806
 31
0.0
  0
LINE
  5
9D
  8
BLATTANSICHT_1_GEOMETRIEAN
  6
VOLLINIE
 62
    18
 10
-8.787230510130158
 20
-32.30542048068806
 30
0.0
 11
-8.906572198228906
 21
-32.37126284016887
 31
0.0
  0
LINE
  5
9E
  8
BLATTANSICHT_1_GEOMETRIEAN
  6
VOLLINIE
 62
    18
 10
-8.906572198228906
 20
-32.37126284016887
 30
0.0
 11
-8.9242839033283
 21
-32.38175871970466
 31
0.0
  0
LINE
  5
9F
  8
BLATTANSICHT_1_GEOMETRIEAN
  6
VOLLINIE
 62
    18
 10
-9.107262146378233
 20
-32.49019083202509
 30
0.0
 11
-9.282090556614104
 21
-32.60267598993877
 31
0.0
  0
LINE
  5
A0
  8
BLATTANSICHT_1_GEOMETRIEAN
  6
VOLLINIE
 62
    18
 10
-9.282090556614104
 20
-32.60267598993877
 30
0.0
 11
-9.376023214722194
 21
-32.66728736019309
 31
0.0
  0
LINE
  5
A1
  8
BLATTANSICHT_1_GEOMETRIEAN
  6
VOLLINIE
 62
    18
 10
-8.107994145321442
 20
-31.99351940145245
 30
0.0
 11
-8.116119166237016
 21
-31.99666026997664
 31
0.0
  0
LINE
  5
A2
  8
BLATTANSICHT_1_GEOMETRIEAN
  6
VOLLINIE
 62
    18
 10
-8.104305888788213
 20
-31.99222271904928
 30
0.0
 11
-8.107994145321442
 21
-31.99351940145245
 31
0.0
  0
LINE
  5
A3
  8
BLATTANSICHT_1_GEOMETRIEAN
  6
VOLLINIE
 62
    18
 10
-11.7872865913637
 20
-36.2155445079064
 30
0.0
 11
-11.80283137511409
 21
-36.2766610084441
 31
0.0
  0
LINE
  5
A4
  8
BLATTANSICHT_1_GEOMETRIEAN
  6
VOLLINIE
 62
    18
 10
-11.80283137511409
 20
-36.2766610084441
 30
0.0
 11
-11.8097590756717
 21
-36.30789514716379
 31
0.0
  0
LINE
  5
A5
  8
BLATTANSICHT_1_GEOMETRIEAN
  6
VOLLINIE
 62
    18
 10
-11.85751568474816
 20
-36.54960456656788
 30
0.0
 11
-11.87766200160164
 21
-36.67114371713066
 31
0.0
  0
LINE
  5
A6
  8
BLATTANSICHT_1_GEOMETRIEAN
  6
VOLLINIE
 62
    18
 10
-11.9230742268843
 20
-37.03788348962296
 30
0.0
 11
-11.92583735635241
 21
-37.06855917491875
 31
0.0
  0
LINE
  5
A7
  8
BLATTANSICHT_1_GEOMETRIEAN
  6
VOLLINIE
 62
    18
 10
-11.87766200160164
 20
-36.67114371713066
 30
0.0
 11
-11.9230742268843
 21
-37.03788348962296
 31
0.0
  0
LINE
  5
A8
  8
BLATTANSICHT_1_GEOMETRIEAN
  6
VOLLINIE
 62
    18
 10
-11.94582348739429
 20
-37.40672329506575
 30
0.0
 11
-11.94866916011411
 21
-37.59149363033877
 31
0.0
  0
LINE
  5
A9
  8
BLATTANSICHT_1_GEOMETRIEAN
  6
VOLLINIE
 62
    18
 10
-11.92583735635241
 20
-37.06855917491875
 30
0.0
 11
-11.94582348739429
 21
-37.40672329506575
 31
0.0
  0
LINE
  5
AA
  8
BLATTANSICHT_1_GEOMETRIEAN
  6
VOLLINIE
 62
    18
 10
-11.88359788306237
 20
-36.71023252712408
 30
0.0
 11
-11.9230742268843
 21
-37.03788348962296
 31
0.0
  0
LINE
  5
AB
  8
BLATTANSICHT_1_GEOMETRIEAN
  6
VOLLINIE
 62
    18
 10
-11.87766200160166
 20
-36.67114371713066
 30
0.0
 11
-11.88359788306237
 21
-36.71023252712408
 31
0.0
  0
LINE
  5
AC
  8
BLATTANSICHT_1_GEOMETRIEAN
  6
VOLLINIE
 62
    18
 10
-10.9374868341141
 20
-34.25807223441877
 30
0.0
 11
-10.95028348044082
 21
-34.27730380863974
 31
0.0
  0
LINE
  5
AD
  8
BLATTANSICHT_1_GEOMETRIEAN
  6
VOLLINIE
 62
    18
 10
-9.977898448097507
 20
-33.14567410245108
 30
0.0
 11
-9.990843030993435
 21
-33.15744014307882
 31
0.0
  0
LINE
  5
AE
  8
BLATTANSICHT_1_GEOMETRIEAN
  6
VOLLINIE
 62
    18
 10
-9.710212004478736
 20
-32.91701019924875
 30
0.0
 11
-9.754654901857174
 21
-32.95312404037134
 31
0.0
  0
LINE
  5
AF
  8
BLATTANSICHT_1_GEOMETRIEAN
  6
VOLLINIE
 62
    18
 10
-9.522569060051497
 20
-32.77202899049361
 30
0.0
 11
-9.710212004478736
 21
-32.91701019924875
 31
0.0
  0
LINE
  5
B0
  8
BLATTANSICHT_1_GEOMETRIEAN
  6
VOLLINIE
 62
    18
 10
-9.415312157563601
 20
-32.69431217226544
 30
0.0
 11
-9.522569060051497
 21
-32.77202899049361
 31
0.0
  0
LINE
  5
B1
  8
BLATTANSICHT_1_GEOMETRIEAN
  6
VOLLINIE
 62
    18
 10
-8.116119166237016
 20
-31.99666026997664
 30
0.0
 11
-8.456431238434794
 21
-32.14070201548563
 31
0.0
  0
LINE
  5
B2
  8
BLATTANSICHT_1_GEOMETRIEAN
  6
VOLLINIE
 62
    18
 10
-8.000790025587856
 20
-31.95333792042062
 30
0.0
 11
-8.116119166237016
 21
-31.99666026997664
 31
0.0
  0
LINE
  5
B3
  8
BLATTANSICHT_1_GEOMETRIEAN
  6
VOLLINIE
 62
    18
 10
-7.689668944934865
 20
-31.84963682298824
 30
0.0
 11
-7.767585213792359
 21
-31.87384164383983
 31
0.0
  0
LINE
  5
B4
  8
BLATTANSICHT_1_GEOMETRIEAN
  6
VOLLINIE
 62
    18
 10
-7.601275289803473
 20
-31.82513507191371
 30
0.0
 11
-7.689668944934865
 21
-31.84963682298824
 31
0.0
  0
LINE
  5
B5
  8
BLATTANSICHT_1_GEOMETRIEAN
  6
VOLLINIE
 62
    18
 10
-7.051166276013522
 20
-31.69365504829936
 30
0.0
 11
-7.412151489764365
 21
-31.77271203019273
 31
0.0
  0
LINE
  5
B6
  8
BLATTANSICHT_1_GEOMETRIEAN
  6
VOLLINIE
 62
    18
 10
-6.990558232761434
 20
-31.68264712791441
 30
0.0
 11
-7.051166276013522
 21
-31.69365504829936
 31
0.0
  0
LINE
  5
B7
  8
BLATTANSICHT_1_GEOMETRIEAN
  6
VOLLINIE
 62
    18
 10
-7.412151489764365
 20
-31.77271203019273
 30
0.0
 11
-7.501583436785966
 21
-31.79593868787972
 31
0.0
  0
LINE
  5
B8
  8
BLATTANSICHT_1_GEOMETRIEAN
  6
VOLLINIE
 62
    18
 10
-7.767585213792359
 20
-31.87384164383983
 30
0.0
 11
-8.000790025587856
 21
-31.95333792042062
 31
0.0
  0
LINE
  5
B9
  8
BLATTANSICHT_1_GEOMETRIEAN
  6
VOLLINIE
 62
    18
 10
-7.501583436785966
 20
-31.79593868787972
 30
0.0
 11
-7.767585213792359
 21
-31.87384164383983
 31
0.0
  0
LINE
  5
BA
  8
BLATTANSICHT_1_GEOMETRIEAN
  6
VOLLINIE
 62
    18
 10
-7.262800922120478
 20
-31.73717406717408
 30
0.0
 11
-7.412151489764365
 21
-31.77271203019271
 31
0.0
  0
LINE
  5
BB
  8
BLATTANSICHT_1_GEOMETRIEAN
  6
VOLLINIE
 62
    18
 10
-7.051166276013522
 20
-31.69365504829936
 30
0.0
 11
-7.262800922120478
 21
-31.73717406717408
 31
0.0
  0
LINE
  5
BC
  8
BLATTANSICHT_1_GEOMETRIEAN
  6
VOLLINIE
 62
    18
 10
-6.685998913102383
 20
-31.63697058837116
 30
0.0
 11
-6.829162678013278
 21
-31.65645100285029
 31
0.0
  0
LINE
  5
BD
  8
BLATTANSICHT_1_GEOMETRIEAN
  6
VOLLINIE
 62
    18
 10
-6.829162678013278
 20
-31.65645100285029
 30
0.0
 11
-6.942223660758529
 21
-31.6753981099173
 31
0.0
  0
LINE
  5
BE
  8
BLATTANSICHT_1_GEOMETRIEAN
  6
VOLLINIE
 62
    18
 10
-6.390527600655211
 20
-31.6077856717038
 30
0.0
 11
-6.410932844790236
 21
-31.60980118158436
 31
0.0
  0
LINE
  5
BF
  8
BLATTANSICHT_1_GEOMETRIEAN
  6
VOLLINIE
 62
    18
 10
-6.318034605917755
 20
-31.6028736739805
 30
0.0
 11
-6.390527600655211
 21
-31.6077856717038
 31
0.0
  0
LINE
  5
C0
  8
BLATTANSICHT_1_GEOMETRIEAN
  6
VOLLINIE
 62
    18
 10
-6.318034605917755
 20
-31.60287367398051
 30
0.0
 11
-6.47160362387261
 21
-31.61432545770117
 31
0.0
  0
LINE
  5
C1
  8
BLATTANSICHT_1_GEOMETRIEAN
  6
VOLLINIE
 62
    18
 10
-5.948669168036587
 20
-31.59149364640277
 30
0.0
 11
-6.318034605917755
 21
-31.60287367398051
 31
0.0
  0
LINE
  5
C2
  8
BLATTANSICHT_1_GEOMETRIEAN
  6
VOLLINIE
 62
    18
 10
-10.9281402212905
 20
-34.24480001289796
 30
0.0
 11
-10.9374868341141
 21
-34.25807223441877
 31
0.0
  0
LINE
  5
C3
  8
BLATTANSICHT_1_GEOMETRIEAN
  6
VOLLINIE
 62
    18
 10
-10.76818085723733
 20
-34.0176571800765
 30
0.0
 11
-10.79504777730522
 21
-34.05580829657743
 31
0.0
  0
LINE
  5
C4
  8
BLATTANSICHT_1_GEOMETRIEAN
  6
VOLLINIE
 62
    18
 10
-9.941554738879674
 20
-33.11432724569327
 30
0.0
 11
-9.977898448097507
 21
-33.14567410245108
 31
0.0
  0
LINE
  5
C5
  8
BLATTANSICHT_1_GEOMETRIEAN
  6
VOLLINIE
 62
    18
 10
-9.754654901857174
 20
-32.95312404037134
 30
0.0
 11
-9.764646839697331
 21
-32.96174219880782
 31
0.0
  0
LINE
  5
C6
  8
BLATTANSICHT_1_GEOMETRIEAN
  6
VOLLINIE
 62
    18
 10
-5.538979505603747
 20
-39.6511427376585
 30
0.0
 11
-5.674564173737856
 21
-39.67352785631755
 31
0.0
  0
LINE
  5
C7
  8
BLATTANSICHT_1_GEOMETRIEAN
  6
VOLLINIE
 62
    18
 10
-5.674564173737856
 20
-39.67352785631755
 30
0.0
 11
-5.811322601468786
 21
-39.68699738544755
 31
0.0
  0
LINE
  5
C8
  8
BLATTANSICHT_1_GEOMETRIEAN
  6
VOLLINIE
 62
    18
 10
-5.811322601468786
 20
-39.68699738544755
 30
0.0
 11
-5.948669168252664
 21
-39.69149364640277
 31
0.0
  0
LINE
  5
C9
  8
BLATTANSICHT_1_GEOMETRIEAN
  6
VOLLINIE
 62
    18
 10
-5.405149182972284
 20
-39.61993788372271
 30
0.0
 11
-5.538979505603747
 21
-39.6511427376585
 31
0.0
  0
LINE
  5
CA
  8
BLATTANSICHT_1_GEOMETRIEAN
  6
VOLLINIE
 62
    18
 10
-5.273646296507255
 20
-39.58004691963112
 30
0.0
 11
-5.405149182972284
 21
-39.61993788372271
 31
0.0
  0
LINE
  5
CB
  8
BLATTANSICHT_1_GEOMETRIEAN
  6
VOLLINIE
 62
    18
 10
-5.145033961790835
 20
-39.53164066462634
 30
0.0
 11
-5.273646296507255
 21
-39.58004691963112
 31
0.0
  0
LINE
  5
CC
  8
BLATTANSICHT_1_GEOMETRIEAN
  6
VOLLINIE
 62
    18
 10
-5.019862918741437
 20
-39.47492640278325
 30
0.0
 11
-5.145033961790835
 21
-39.53164066462634
 31
0.0
  0
LINE
  5
CD
  8
BLATTANSICHT_1_GEOMETRIEAN
  6
VOLLINIE
 62
    18
 10
-4.89866916675382
 20
-39.41014699252317
 30
0.0
 11
-5.019862918741437
 21
-39.47492640278325
 31
0.0
  0
LINE
  5
CE
  8
BLATTANSICHT_1_GEOMETRIEAN
  6
VOLLINIE
 62
    18
 10
-4.781971676093145
 20
-39.33757982923299
 30
0.0
 11
-4.89866916675382
 21
-39.41014699252317
 31
0.0
  0
LINE
  5
CF
  8
BLATTANSICHT_1_GEOMETRIEAN
  6
VOLLINIE
 62
    18
 10
-4.670270171076274
 20
-39.25753566258859
 30
0.0
 11
-4.781971676093145
 21
-39.33757982923299
 31
0.0
  0
LINE
  5
D0
  8
BLATTANSICHT_1_GEOMETRIEAN
  6
VOLLINIE
 62
    18
 10
-4.564042966198882
 20
-39.17035724908634
 30
0.0
 11
-4.670270171076274
 21
-39.25753566258859
 31
0.0
  0
LINE
  5
D1
  8
BLATTANSICHT_1_GEOMETRIEAN
  6
VOLLINIE
 62
    18
 10
-4.463744942607603
 20
-39.07641790003327
 30
0.0
 11
-4.564042966198882
 21
-39.17035724908634
 31
0.0
  0
LINE
  5
D2
  8
BLATTANSICHT_1_GEOMETRIEAN
  6
VOLLINIE
 62
    18
 10
-4.34419069211317
 20
-38.94635482530467
 30
0.0
 11
-4.463744942607603
 21
-39.07641790003327
 31
0.0
  0
LINE
  5
D3
  8
BLATTANSICHT_1_GEOMETRIEAN
  6
VOLLINIE
 62
    18
 10
-3.889020083478863
 20
-38.0011833342929
 30
0.0
 11
-3.930742797471535
 21
-38.17284823273236
 31
0.0
  0
LINE
  5
D4
  8
BLATTANSICHT_1_GEOMETRIEAN
  6
VOLLINIE
 62
    18
 10
-3.930742797471535
 20
-38.17284823273236
 30
0.0
 11
-3.986746400297145
 21
-38.34039887788092
 31
0.0
  0
LINE
  5
D5
  8
BLATTANSICHT_1_GEOMETRIEAN
  6
VOLLINIE
 62
    18
 10
-3.986746400297145
 20
-38.34039887788092
 30
0.0
 11
-4.056634553795351
 21
-38.50264951183887
 31
0.0
  0
LINE
  5
D6
  8
BLATTANSICHT_1_GEOMETRIEAN
  6
VOLLINIE
 62
    18
 10
-4.056634553795351
 20
-38.50264951183887
 30
0.0
 11
-4.139912658676293
 21
-38.65845188494848
 31
0.0
  0
LINE
  5
D7
  8
BLATTANSICHT_1_GEOMETRIEAN
  6
VOLLINIE
 62
    18
 10
-4.139912658676293
 20
-38.65845188494848
 30
0.0
 11
-4.235991354805623
 21
-38.80670338197037
 31
0.0
  0
LINE
  5
D8
  8
BLATTANSICHT_1_GEOMETRIEAN
  6
VOLLINIE
 62
    18
 10
-4.235991354805623
 20
-38.80670338197037
 30
0.0
 11
-4.34419069211317
 21
-38.94635482530467
 31
0.0
  0
LINE
  5
D9
  8
BLATTANSICHT_1_GEOMETRIEAN
  6
VOLLINIE
 62
    18
 10
-11.94866916011411
 20
-37.59149363033877
 30
0.0
 11
-11.94866916011409
 21
-40.09149366350677
 31
0.0
  0
LINE
  5
DA
  8
BLATTANSICHT_1_GEOMETRIEAN
  6
VOLLINIE
 62
    18
 10
-7.93722243886296
 20
-38.26651652923514
 30
0.0
 11
-7.977113401564103
 21
-38.13501365068476
 31
0.0
  0
LINE
  5
DB
  8
BLATTANSICHT_1_GEOMETRIEAN
  6
VOLLINIE
 62
    18
 10
-7.888816186252142
 20
-38.39512885632876
 30
0.0
 11
-7.93722243886296
 21
-38.26651652923514
 31
0.0
  0
LINE
  5
DC
  8
BLATTANSICHT_1_GEOMETRIEAN
  6
VOLLINIE
 62
    18
 10
-7.977113401564103
 20
-38.13501365068476
 30
0.0
 11
-8.008318255138732
 21
-38.00118333616056
 31
0.0
  0
LINE
  5
DD
  8
BLATTANSICHT_1_GEOMETRIEAN
  6
VOLLINIE
 62
    18
 10
-7.832101927227257
 20
-38.52029989324884
 30
0.0
 11
-7.888816186252142
 21
-38.39512885632876
 31
0.0
  0
LINE
  5
DE
  8
BLATTANSICHT_1_GEOMETRIEAN
  6
VOLLINIE
 62
    18
 10
-7.767322520569762
 20
-38.6414936395128
 30
0.0
 11
-7.832101927227257
 21
-38.52029989324884
 31
0.0
  0
LINE
  5
DF
  8
BLATTANSICHT_1_GEOMETRIEAN
  6
VOLLINIE
 62
    18
 10
-7.694755361623885
 20
-38.75819112493092
 30
0.0
 11
-7.767322520569762
 21
-38.6414936395128
 31
0.0
  0
LINE
  5
E0
  8
BLATTANSICHT_1_GEOMETRIEAN
  6
VOLLINIE
 62
    18
 10
-7.614711186811192
 20
-38.86989264246721
 30
0.0
 11
-7.694755361623885
 21
-38.75819112493092
 31
0.0
  0
LINE
  5
E1
  8
BLATTANSICHT_1_GEOMETRIEAN
  6
VOLLINIE
 62
    18
 10
-7.527532763583491
 20
-38.97611985868267
 30
0.0
 11
-7.614711186811192
 21
-38.86989264246721
 31
0.0
  0
LINE
  5
E2
  8
BLATTANSICHT_1_GEOMETRIEAN
  6
VOLLINIE
 62
    18
 10
-7.433593403370589
 20
-39.07641789228326
 30
0.0
 11
-7.527532763583491
 21
-38.97611985868267
 31
0.0
  0
LINE
  5
E3
  8
BLATTANSICHT_1_GEOMETRIEAN
  6
VOLLINIE
 62
    18
 10
-7.333295375593814
 20
-39.17035724584349
 30
0.0
 11
-7.433593403370589
 21
-39.07641789228326
 31
0.0
  0
LINE
  5
E4
  8
BLATTANSICHT_1_GEOMETRIEAN
  6
VOLLINIE
 62
    18
 10
-7.227068165990249
 20
-39.25753566325896
 30
0.0
 11
-7.333295375593814
 21
-39.17035724584349
 31
0.0
  0
LINE
  5
E5
  8
BLATTANSICHT_1_GEOMETRIEAN
  6
VOLLINIE
 62
    18
 10
-7.115366655767382
 20
-39.33757983317254
 30
0.0
 11
-7.227068165990249
 21
-39.25753566325896
 31
0.0
  0
LINE
  5
E6
  8
BLATTANSICHT_1_GEOMETRIEAN
  6
VOLLINIE
 62
    18
 10
-6.998669164584573
 20
-39.41014699609953
 30
0.0
 11
-7.115366655767382
 21
-39.33757983317254
 31
0.0
  0
LINE
  5
E7
  8
BLATTANSICHT_1_GEOMETRIEAN
  6
VOLLINIE
 62
    18
 10
-6.877475412091922
 20
-39.47492640594854
 30
0.0
 11
-6.998669164584573
 21
-39.41014699609953
 31
0.0
  0
LINE
  5
E8
  8
BLATTANSICHT_1_GEOMETRIEAN
  6
VOLLINIE
 62
    18
 10
-6.752304368558663
 20
-39.53164066733339
 30
0.0
 11
-6.877475412091922
 21
-39.47492640594854
 31
0.0
  0
LINE
  5
E9
  8
BLATTANSICHT_1_GEOMETRIEAN
  6
VOLLINIE
 62
    18
 10
-6.623692041084178
 20
-39.58004691921985
 30
0.0
 11
-6.752304368558663
 21
-39.53164066733339
 31
0.0
  0
LINE
  5
EA
  8
BLATTANSICHT_1_GEOMETRIEAN
  6
VOLLINIE
 62
    18
 10
-6.492189162199206
 20
-39.61993788116693
 30
0.0
 11
-6.623692041084178
 21
-39.58004691921985
 31
0.0
  0
LINE
  5
EB
  8
BLATTANSICHT_1_GEOMETRIEAN
  6
VOLLINIE
 62
    18
 10
-6.358358847388932
 20
-39.65114273396075
 30
0.0
 11
-6.492189162199206
 21
-39.61993788116693
 31
0.0
  0
LINE
  5
EC
  8
BLATTANSICHT_1_GEOMETRIEAN
  6
VOLLINIE
 62
    18
 10
-6.222774173866746
 20
-39.67352785425833
 30
0.0
 11
-6.358358847388932
 21
-39.65114273396075
 31
0.0
  0
LINE
  5
ED
  8
BLATTANSICHT_1_GEOMETRIEAN
  6
VOLLINIE
 62
    18
 10
-6.086015740616308
 20
-39.68699738430717
 30
0.0
 11
-6.222774173866746
 21
-39.67352785425833
 31
0.0
  0
LINE
  5
EE
  8
BLATTANSICHT_1_GEOMETRIEAN
  6
VOLLINIE
 62
    18
 10
-5.948669168252664
 20
-39.69149364640277
 30
0.0
 11
-6.086015740616308
 21
-39.68699738430717
 31
0.0
  0
LINE
  5
EF
  8
BLATTANSICHT_1_GEOMETRIEAN
  6
VOLLINIE
 62
    18
 10
-5.538979504586562
 20
-64.65114273745617
 30
0.0
 11
-5.674564173052379
 21
-64.6735278562273
 31
0.0
  0
LINE
  5
F0
  8
BLATTANSICHT_1_GEOMETRIEAN
  6
VOLLINIE
 62
    18
 10
-5.811322601123825
 20
-64.68699738542493
 30
0.0
 11
-5.948669168252664
 21
-64.69149364640278
 31
0.0
  0
LINE
  5
F1
  8
BLATTANSICHT_1_GEOMETRIEAN
  6
VOLLINIE
 62
    18
 10
-5.674564173052379
 20
-64.6735278562273
 30
0.0
 11
-5.811322601123825
 21
-64.68699738542493
 31
0.0
  0
LINE
  5
F2
  8
BLATTANSICHT_1_GEOMETRIEAN
  6
VOLLINIE
 62
    18
 10
-5.378644232152107
 20
-64.61264964494536
 30
0.0
 11
-5.538979504586562
 21
-64.65114273745617
 31
0.0
  0
LINE
  5
F3
  8
BLATTANSICHT_1_GEOMETRIEAN
  6
VOLLINIE
 62
    18
 10
-5.221823353178076
 20
-64.56169545301293
 30
0.0
 11
-5.378644232152107
 21
-64.61264964494536
 31
0.0
  0
LINE
  5
F4
  8
BLATTANSICHT_1_GEOMETRIEAN
  6
VOLLINIE
 62
    18
 10
-5.069483720577231
 20
-64.49859431121094
 30
0.0
 11
-5.221823353178076
 21
-64.56169545301293
 31
0.0
  0
LINE
  5
F5
  8
BLATTANSICHT_1_GEOMETRIEAN
  6
VOLLINIE
 62
    18
 10
-4.922564558886971
 20
-64.42373525908025
 30
0.0
 11
-5.069483720577231
 21
-64.49859431121094
 31
0.0
  0
LINE
  5
F6
  8
BLATTANSICHT_1_GEOMETRIEAN
  6
VOLLINIE
 62
    18
 10
-4.781971673637472
 20
-64.33757982759215
 30
0.0
 11
-4.922564558886971
 21
-64.42373525908025
 31
0.0
  0
LINE
  5
F7
  8
BLATTANSICHT_1_GEOMETRIEAN
  6
VOLLINIE
 62
    18
 10
-4.670270168520132
 20
-64.2575356606272
 30
0.0
 11
-4.781971673637472
 21
-64.33757982759215
 31
0.0
  0
LINE
  5
F8
  8
BLATTANSICHT_1_GEOMETRIEAN
  6
VOLLINIE
 62
    18
 10
-4.564042963574622
 20
-64.17035724678492
 30
0.0
 11
-4.670270168520132
 21
-64.2575356606272
 31
0.0
  0
LINE
  5
F9
  8
BLATTANSICHT_1_GEOMETRIEAN
  6
VOLLINIE
 62
    18
 10
-4.463744939949604
 20
-64.07641789737526
 30
0.0
 11
-4.564042963574622
 21
-64.17035724678492
 31
0.0
  0
LINE
  5
FA
  8
BLATTANSICHT_1_GEOMETRIEAN
  6
VOLLINIE
 62
    18
 10
-4.369805582652097
 20
-63.97611986768012
 30
0.0
 11
-4.463744939949604
 21
-64.07641789737526
 31
0.0
  0
LINE
  5
FB
  8
BLATTANSICHT_1_GEOMETRIEAN
  6
VOLLINIE
 62
    18
 10
-4.282627161832997
 20
-63.86989265575359
 30
0.0
 11
-4.369805582652097
 21
-63.97611986768012
 31
0.0
  0
LINE
  5
FC
  8
BLATTANSICHT_1_GEOMETRIEAN
  6
VOLLINIE
 62
    18
 10
-4.202582988885474
 20
-63.75819114283928
 30
0.0
 11
-4.282627161832997
 21
-63.86989265575359
 31
0.0
  0
LINE
  5
FD
  8
BLATTANSICHT_1_GEOMETRIEAN
  6
VOLLINIE
 62
    18
 10
-4.130015823807456
 20
-63.6414936494679
 30
0.0
 11
-4.202582988885474
 21
-63.75819114283928
 31
0.0
  0
LINE
  5
FE
  8
BLATTANSICHT_1_GEOMETRIEAN
  6
VOLLINIE
 62
    18
 10
-4.065236412128097
 20
-63.52029989455826
 30
0.0
 11
-4.130015823807456
 21
-63.6414936494679
 31
0.0
  0
LINE
  5
FF
  8
BLATTANSICHT_1_GEOMETRIEAN
  6
VOLLINIE
 62
    18
 10
-4.008522149253451
 20
-63.39512884841258
 30
0.0
 11
-4.065236412128097
 21
-63.52029989455826
 31
0.0
  0
LINE
  5
100
  8
BLATTANSICHT_1_GEOMETRIEAN
  6
VOLLINIE
 62
    18
 10
-3.947841410087936
 20
-63.22921480424903
 30
0.0
 11
-4.008522149253451
 21
-63.39512884841258
 31
0.0
  0
LINE
  5
101
  8
BLATTANSICHT_1_GEOMETRIEAN
  6
VOLLINIE
 62
    18
 10
-3.901320552642915
 20
-63.0587875999096
 30
0.0
 11
-3.947841410087936
 21
-63.22921480424903
 31
0.0
  0
LINE
  5
102
  8
BLATTANSICHT_1_GEOMETRIEAN
  6
VOLLINIE
 62
    18
 10
-3.869288805576736
 20
-62.88505335073499
 30
0.0
 11
-3.901320552642915
 21
-63.0587875999096
 31
0.0
  0
LINE
  5
103
  8
BLATTANSICHT_1_GEOMETRIEAN
  6
VOLLINIE
 62
    18
 10
-3.851972857942202
 20
-62.70924157606135
 30
0.0
 11
-3.869288805576736
 21
-62.88505335073499
 31
0.0
  0
LINE
  5
104
  8
BLATTANSICHT_1_GEOMETRIEAN
  6
VOLLINIE
 62
    18
 10
-3.849495254905548
 20
-62.53259649789736
 30
0.0
 11
-3.851972857942202
 21
-62.70924157606135
 31
0.0
  0
LINE
  5
105
  8
BLATTANSICHT_1_GEOMETRIEAN
  6
VOLLINIE
 62
    18
 10
-3.861873530492743
 20
-62.35636823555029
 30
0.0
 11
-3.849495254905548
 21
-62.53259649789736
 31
0.0
  0
LINE
  5
106
  8
BLATTANSICHT_1_GEOMETRIEAN
  6
VOLLINIE
 62
    18
 10
-3.88902008350105
 20
-62.18180395851705
 30
0.0
 11
-3.861873530492743
 21
-62.35636823555029
 31
0.0
  0
LINE
  5
107
  8
BLATTANSICHT_1_GEOMETRIEAN
  6
VOLLINIE
 62
    18
 10
-3.930742797501777
 20
-62.01013906008421
 30
0.0
 11
-3.88902008350105
 21
-62.18180395851705
 31
0.0
  0
LINE
  5
108
  8
BLATTANSICHT_1_GEOMETRIEAN
  6
VOLLINIE
 62
    18
 10
-3.986746400334482
 20
-61.8425884149428
 30
0.0
 11
-3.930742797501777
 21
-62.01013906008421
 31
0.0
  0
LINE
  5
109
  8
BLATTANSICHT_1_GEOMETRIEAN
  6
VOLLINIE
 62
    18
 10
-4.056634553838812
 20
-61.68033778099241
 30
0.0
 11
-3.986746400334482
 21
-61.8425884149428
 31
0.0
  0
LINE
  5
10A
  8
BLATTANSICHT_1_GEOMETRIEAN
  6
VOLLINIE
 62
    18
 10
-4.139912658724887
 20
-61.5245354078907
 30
0.0
 11
-4.056634553838812
 21
-61.68033778099241
 31
0.0
  0
LINE
  5
10B
  8
BLATTANSICHT_1_GEOMETRIEAN
  6
VOLLINIE
 62
    18
 10
-4.235991354858346
 20
-61.37628391087687
 30
0.0
 11
-4.139912658724887
 21
-61.5245354078907
 31
0.0
  0
LINE
  5
10C
  8
BLATTANSICHT_1_GEOMETRIEAN
  6
VOLLINIE
 62
    18
 10
-4.344190692169028
 20
-61.23663246755073
 30
0.0
 11
-4.235991354858346
 21
-61.37628391087687
 31
0.0
  0
LINE
  5
10D
  8
BLATTANSICHT_1_GEOMETRIEAN
  6
VOLLINIE
 62
    18
 10
-4.463744942665615
 20
-61.10656939283025
 30
0.0
 11
-4.344190692169028
 21
-61.23663246755073
 31
0.0
  0
LINE
  5
10E
  8
BLATTANSICHT_1_GEOMETRIEAN
  6
VOLLINIE
 62
    18
 10
-6.998669165353747
 20
-60.77284029536639
 30
0.0
 11
-6.877475412796304
 21
-60.70806088542068
 31
0.0
  0
LINE
  5
10F
  8
BLATTANSICHT_1_GEOMETRIEAN
  6
VOLLINIE
 62
    18
 10
-7.115366656591343
 20
-60.84540745839985
 30
0.0
 11
-6.998669165353747
 21
-60.77284029536639
 31
0.0
  0
LINE
  5
110
  8
BLATTANSICHT_1_GEOMETRIEAN
  6
VOLLINIE
 62
    18
 10
-6.877475412796304
 20
-60.70806088542068
 30
0.0
 11
-6.752304369189287
 21
-60.65134662394968
 31
0.0
  0
LINE
  5
111
  8
BLATTANSICHT_1_GEOMETRIEAN
  6
VOLLINIE
 62
    18
 10
-7.227068166847913
 20
-60.92545162842099
 30
0.0
 11
-7.115366656591343
 21
-60.84540745839985
 31
0.0
  0
LINE
  5
112
  8
BLATTANSICHT_1_GEOMETRIEAN
  6
VOLLINIE
 62
    18
 10
-7.333295376474343
 20
-61.01263004595056
 30
0.0
 11
-7.227068166847913
 21
-60.92545162842099
 31
0.0
  0
LINE
  5
113
  8
BLATTANSICHT_1_GEOMETRIEAN
  6
VOLLINIE
 62
    18
 10
-7.433593404262433
 20
-61.10656939963043
 30
0.0
 11
-7.333295376474343
 21
-61.01263004595056
 31
0.0
  0
LINE
  5
114
  8
BLATTANSICHT_1_GEOMETRIEAN
  6
VOLLINIE
 62
    18
 10
-7.527532764463851
 20
-61.20686743334304
 30
0.0
 11
-7.433593404262433
 21
-61.10656939963043
 31
0.0
  0
LINE
  5
115
  8
BLATTANSICHT_1_GEOMETRIEAN
  6
VOLLINIE
 62
    18
 10
-7.614711187669026
 20
-61.31309464967259
 30
0.0
 11
-7.527532764463851
 21
-61.20686743334304
 31
0.0
  0
LINE
  5
116
  8
BLATTANSICHT_1_GEOMETRIEAN
  6
VOLLINIE
 62
    18
 10
-7.694755362447846
 20
-61.42479616732406
 30
0.0
 11
-7.614711187669026
 21
-61.31309464967259
 31
0.0
  0
LINE
  5
117
  8
BLATTANSICHT_1_GEOMETRIEAN
  6
VOLLINIE
 62
    18
 10
-7.767322521338778
 20
-61.54149365284102
 30
0.0
 11
-7.694755362447846
 21
-61.42479616732406
 31
0.0
  0
LINE
  5
118
  8
BLATTANSICHT_1_GEOMETRIEAN
  6
VOLLINIE
 62
    18
 10
-7.832101927931809
 20
-61.66268739920169
 30
0.0
 11
-7.767322521338778
 21
-61.54149365284102
 31
0.0
  0
LINE
  5
119
  8
BLATTANSICHT_1_GEOMETRIEAN
  6
VOLLINIE
 62
    18
 10
-7.888816186882766
 20
-61.78785843621554
 30
0.0
 11
-7.832101927931809
 21
-61.66268739920169
 31
0.0
  0
LINE
  5
11A
  8
BLATTANSICHT_1_GEOMETRIEAN
  6
VOLLINIE
 62
    18
 10
-7.937222439403535
 20
-61.9164707633792
 30
0.0
 11
-7.888816186882766
 21
-61.78785843621554
 31
0.0
  0
LINE
  5
11B
  8
BLATTANSICHT_1_GEOMETRIEAN
  6
VOLLINIE
 62
    18
 10
-7.977113402008135
 20
-62.04797364199421
 30
0.0
 11
-7.937222439403535
 21
-61.9164707633792
 31
0.0
  0
LINE
  5
11C
  8
BLATTANSICHT_1_GEOMETRIEAN
  6
VOLLINIE
 62
    18
 10
-8.008318255480027
 20
-62.18180395657709
 30
0.0
 11
-7.977113402008135
 21
-62.04797364199421
 31
0.0
  0
LINE
  5
11D
  8
BLATTANSICHT_1_GEOMETRIEAN
  6
VOLLINIE
 62
    18
 10
-8.035464808663342
 20
-62.3563682344057
 30
0.0
 11
-8.008318255480027
 21
-62.18180395657709
 31
0.0
  0
LINE
  5
11E
  8
BLATTANSICHT_1_GEOMETRIEAN
  6
VOLLINIE
 62
    18
 10
-8.047843084289802
 20
-62.5325964975648
 30
0.0
 11
-8.035464808663342
 21
-62.3563682344057
 31
0.0
  0
LINE
  5
11F
  8
BLATTANSICHT_1_GEOMETRIEAN
  6
VOLLINIE
 62
    18
 10
-8.045365481155578
 20
-62.70924157654032
 30
0.0
 11
-8.047843084289802
 21
-62.5325964975648
 31
0.0
  0
LINE
  5
120
  8
BLATTANSICHT_1_GEOMETRIEAN
  6
VOLLINIE
 62
    18
 10
-7.949496927914365
 20
-63.22921480698798
 30
0.0
 11
-7.996017785854618
 21
-63.05878760194119
 31
0.0
  0
LINE
  5
121
  8
BLATTANSICHT_1_GEOMETRIEAN
  6
VOLLINIE
 62
    18
 10
-7.888816188131628
 20
-63.39512885179126
 30
0.0
 11
-7.949496927914365
 21
-63.22921480698798
 31
0.0
  0
LINE
  5
122
  8
BLATTANSICHT_1_GEOMETRIEAN
  6
VOLLINIE
 62
    18
 10
-7.996017785854618
 20
-63.05878760194119
 30
0.0
 11
-8.028049533287517
 21
-62.8850533520077
 31
0.0
  0
LINE
  5
123
  8
BLATTANSICHT_1_GEOMETRIEAN
  6
VOLLINIE
 62
    18
 10
-8.028049533287517
 20
-62.8850533520077
 30
0.0
 11
-8.045365481155578
 21
-62.70924157654032
 31
0.0
  0
LINE
  5
124
  8
BLATTANSICHT_1_GEOMETRIEAN
  6
VOLLINIE
 62
    18
 10
-7.832101924737058
 20
-63.52029989829844
 30
0.0
 11
-7.888816188131628
 21
-63.39512885179126
 31
0.0
  0
LINE
  5
125
  8
BLATTANSICHT_1_GEOMETRIEAN
  6
VOLLINIE
 62
    18
 10
-7.767322512483836
 20
-63.64149365351802
 30
0.0
 11
-7.832101924737058
 21
-63.52029989829844
 31
0.0
  0
LINE
  5
126
  8
BLATTANSICHT_1_GEOMETRIEAN
  6
VOLLINIE
 62
    18
 10
-7.694755346782684
 20
-63.75819114714232
 30
0.0
 11
-7.767322512483836
 21
-63.64149365351802
 31
0.0
  0
LINE
  5
127
  8
BLATTANSICHT_1_GEOMETRIEAN
  6
VOLLINIE
 62
    18
 10
-5.948669168252664
 20
-64.69149364640278
 30
0.0
 11
-6.086015740961269
 21
-64.68699738428454
 31
0.0
  0
LINE
  5
128
  8
BLATTANSICHT_1_GEOMETRIEAN
  6
VOLLINIE
 62
    18
 10
-6.086015740961269
 20
-64.68699738428454
 30
0.0
 11
-6.222774174552235
 21
-64.67352785416806
 31
0.0
  0
LINE
  5
129
  8
BLATTANSICHT_1_GEOMETRIEAN
  6
VOLLINIE
 62
    18
 10
-6.222774174552235
 20
-64.67352785416806
 30
0.0
 11
-6.358358848406105
 21
-64.6511427337584
 31
0.0
  0
LINE
  5
12A
  8
BLATTANSICHT_1_GEOMETRIEAN
  6
VOLLINIE
 62
    18
 10
-11.14482158681466
 20
-34.591493637732
 30
0.0
 11
-11.38651588667641
 21
-35.05578406597035
 31
0.0
  0
LINE
  5
12B
  8
BLATTANSICHT_1_GEOMETRIEAN
  6
VOLLINIE
 62
    18
 10
-10.86358142968385
 20
-34.15003502092126
 30
0.0
 11
-11.14482158681466
 21
-34.591493637732
 31
0.0
  0
LINE
  5
12C
  8
BLATTANSICHT_1_GEOMETRIEAN
  6
VOLLINIE
 62
    18
 10
-10.54493582268896
 20
-33.73476798215912
 30
0.0
 11
-10.86358142968385
 21
-34.15003502092126
 31
0.0
  0
LINE
  5
12D
  8
BLATTANSICHT_1_GEOMETRIEAN
  6
VOLLINIE
 62
    18
 10
-10.19130986061411
 20
-33.34885294502277
 30
0.0
 11
-10.54493582268896
 21
-33.73476798215912
 31
0.0
  0
LINE
  5
12E
  8
BLATTANSICHT_1_GEOMETRIEAN
  6
VOLLINIE
 62
    18
 10
-11.38651588667641
 20
-35.05578406597035
 30
0.0
 11
-11.58682488971523
 21
-35.5393727751448
 31
0.0
  0
LINE
  5
12F
  8
BLATTANSICHT_1_GEOMETRIEAN
  6
VOLLINIE
 62
    18
 10
-11.58682488971523
 20
-35.5393727751448
 30
0.0
 11
-11.744224123474
 21
-36.03857936319383
 31
0.0
  0
LINE
  5
130
  8
BLATTANSICHT_1_GEOMETRIEAN
  6
VOLLINIE
 62
    18
 10
-11.744224123474
 20
-36.03857936319383
 30
0.0
 11
-11.85751568474816
 21
-36.54960456656788
 31
0.0
  0
LINE
  5
131
  8
BLATTANSICHT_1_GEOMETRIEAN
  6
VOLLINIE
 62
    18
 10
-11.85751568474816
 20
-36.54960456656788
 30
0.0
 11
-11.92583735635241
 21
-37.06855917491875
 31
0.0
  0
LINE
  5
132
  8
BLATTANSICHT_1_GEOMETRIEAN
  6
VOLLINIE
 62
    18
 10
-11.92583735635241
 20
-37.06855917491875
 30
0.0
 11
-11.94866916011411
 21
-37.59149363033877
 31
0.0
  0
LINE
  5
133
  8
BLATTANSICHT_1_GEOMETRIEAN
  6
VOLLINIE
 62
    18
 10
-9.805394822384503
 20
-32.99522698362026
 30
0.0
 11
-10.19130986061411
 21
-33.34885294502277
 31
0.0
  0
LINE
  5
134
  8
BLATTANSICHT_1_GEOMETRIEAN
  6
VOLLINIE
 62
    18
 10
-9.390127782573181
 20
-32.67658137741483
 30
0.0
 11
-9.805394822384503
 21
-32.99522698362026
 31
0.0
  0
LINE
  5
135
  8
BLATTANSICHT_1_GEOMETRIEAN
  6
VOLLINIE
 62
    18
 10
-8.484378735606677
 20
-32.1536469223402
 30
0.0
 11
-8.948669164769548
 21
-32.39534122118782
 31
0.0
  0
LINE
  5
136
  8
BLATTANSICHT_1_GEOMETRIEAN
  6
VOLLINIE
 62
    18
 10
-7.501583436785966
 20
-31.79593868787972
 30
0.0
 11
-8.000790025587856
 21
-31.95333792042062
 31
0.0
  0
LINE
  5
137
  8
BLATTANSICHT_1_GEOMETRIEAN
  6
VOLLINIE
 62
    18
 10
-6.47160362387261
 20
-31.61432545770117
 30
0.0
 11
-6.990558232761434
 21
-31.68264712791441
 31
0.0
  0
LINE
  5
138
  8
BLATTANSICHT_1_GEOMETRIEAN
  6
VOLLINIE
 62
    18
 10
-5.948669168036587
 20
-31.59149364640277
 30
0.0
 11
-6.47160362387261
 21
-31.61432545770117
 31
0.0
  0
LINE
  5
139
  8
BLATTANSICHT_1_GEOMETRIEAN
  6
VOLLINIE
 62
    18
 10
-6.990558232761434
 20
-31.68264712791441
 30
0.0
 11
-7.501583436785966
 21
-31.79593868787972
 31
0.0
  0
LINE
  5
13A
  8
BLATTANSICHT_1_GEOMETRIEAN
  6
VOLLINIE
 62
    18
 10
-8.000790025587856
 20
-31.95333792042062
 30
0.0
 11
-8.484378735606677
 21
-32.1536469223402
 31
0.0
  0
LINE
  5
13B
  8
BLATTANSICHT_1_GEOMETRIEAN
  6
VOLLINIE
 62
    18
 10
-8.948669164769548
 20
-32.39534122118782
 30
0.0
 11
-9.390127782573181
 21
-32.67658137741483
 31
0.0
  0
LINE
  5
13C
  8
BLATTANSICHT_1_GEOMETRIEAN
  6
VOLLINIE
 62
    18
 10
-6.358358848406105
 20
-64.6511427337584
 30
0.0
 11
-6.518694116177035
 21
-64.61264964141463
 31
0.0
  0
LINE
  5
13D
  8
BLATTANSICHT_1_GEOMETRIEAN
  6
VOLLINIE
 62
    18
 10
-6.67551499062608
 20
-64.56169545035641
 30
0.0
 11
-6.82785461892201
 21
-64.498594310113
 31
0.0
  0
LINE
  5
13E
  8
BLATTANSICHT_1_GEOMETRIEAN
  6
VOLLINIE
 62
    18
 10
-6.518694116177035
 20
-64.61264964141463
 30
0.0
 11
-6.67551499062608
 21
-64.56169545035641
 31
0.0
  0
LINE
  5
13F
  8
BLATTANSICHT_1_GEOMETRIEAN
  6
VOLLINIE
 62
    18
 10
-6.82785461892201
 20
-64.498594310113
 30
0.0
 11
-6.974773776606079
 21
-64.42373526019406
 31
0.0
  0
LINE
  5
140
  8
BLATTANSICHT_1_GEOMETRIEAN
  6
VOLLINIE
 62
    18
 10
-6.974773776606079
 20
-64.42373526019406
 30
0.0
 11
-7.115366658223055
 21
-64.3375798315317
 31
0.0
  0
LINE
  5
141
  8
BLATTANSICHT_1_GEOMETRIEAN
  6
VOLLINIE
 62
    18
 10
-7.22706816854638
 20
-64.25753566129755
 30
0.0
 11
-7.333295378218075
 21
-64.17035724354206
 31
0.0
  0
LINE
  5
142
  8
BLATTANSICHT_1_GEOMETRIEAN
  6
VOLLINIE
 62
    18
 10
-7.115366658223055
 20
-64.3375798315317
 30
0.0
 11
-7.22706816854638
 21
-64.25753566129755
 31
0.0
  0
LINE
  5
143
  8
BLATTANSICHT_1_GEOMETRIEAN
  6
VOLLINIE
 62
    18
 10
-7.333295378218075
 20
-64.17035724354206
 30
0.0
 11
-7.433593406028589
 21
-64.07641788962525
 31
0.0
  0
LINE
  5
144
  8
BLATTANSICHT_1_GEOMETRIEAN
  6
VOLLINIE
 62
    18
 10
-7.527532759364663
 20
-63.97611986349329
 30
0.0
 11
-7.614711176732541
 21
-63.86989265560193
 31
0.0
  0
LINE
  5
145
  8
BLATTANSICHT_1_GEOMETRIEAN
  6
VOLLINIE
 62
    18
 10
-7.433593406028589
 20
-64.07641788962525
 30
0.0
 11
-7.527532759364663
 21
-63.97611986349329
 31
0.0
  0
LINE
  5
146
  8
BLATTANSICHT_1_GEOMETRIEAN
  6
VOLLINIE
 62
    18
 10
-7.614711176732541
 20
-63.86989265560193
 30
0.0
 11
-7.694755346782684
 21
-63.75819114714232
 31
0.0
  0
LINE
  5
147
  8
BLATTANSICHT_1_GEOMETRIEAN
  6
VOLLINIE
 62
    18
 10
-11.9486691691141
 20
-60.09149364640277
 30
0.0
 11
-11.9486691691141
 21
-62.59149364640276
 31
0.0
  0
LINE
  5
148
  8
BLATTANSICHT_1_GEOMETRIEAN
  6
VOLLINIE
 62
    18
 10
-3.851972857948429
 20
-37.47374571674941
 30
0.0
 11
-3.849495254902412
 21
-37.65039079491234
 31
0.0
  0
LINE
  5
149
  8
BLATTANSICHT_1_GEOMETRIEAN
  6
VOLLINIE
 62
    18
 10
-3.849495254902412
 20
-37.65039079491234
 30
0.0
 11
-3.861873530480098
 21
-37.82661905725912
 31
0.0
  0
LINE
  5
14A
  8
BLATTANSICHT_1_GEOMETRIEAN
  6
VOLLINIE
 62
    18
 10
-3.861873530480098
 20
-37.82661905725912
 30
0.0
 11
-3.889020083478863
 21
-38.0011833342929
 31
0.0
  0
LINE
  5
14B
  8
BLATTANSICHT_1_GEOMETRIEAN
  6
VOLLINIE
 62
    18
 10
-3.86928880559211
 20
-37.29793394207761
 30
0.0
 11
-3.851972857948429
 21
-37.47374571674941
 31
0.0
  0
LINE
  5
14C
  8
BLATTANSICHT_1_GEOMETRIEAN
  6
VOLLINIE
 62
    18
 10
-3.901320552667189
 20
-37.12419969290561
 30
0.0
 11
-3.86928880559211
 21
-37.29793394207761
 31
0.0
  0
LINE
  5
14D
  8
BLATTANSICHT_1_GEOMETRIEAN
  6
VOLLINIE
 62
    18
 10
-3.947841410120772
 20
-36.95377248856949
 30
0.0
 11
-3.901320552667189
 21
-37.12419969290561
 31
0.0
  0
LINE
  5
14E
  8
BLATTANSICHT_1_GEOMETRIEAN
  6
VOLLINIE
 62
    18
 10
-4.008522149294476
 20
-36.78785844440995
 30
0.0
 11
-3.947841410120772
 21
-36.95377248856949
 31
0.0
  0
LINE
  5
14F
  8
BLATTANSICHT_1_GEOMETRIEAN
  6
VOLLINIE
 62
    18
 10
0.0513308308858932
 20
-62.59149364640276
 30
0.0
 11
0.0513308308858932
 21
-37.5914936487109
 31
0.0
  0
LINE
  5
150
  8
BLATTANSICHT_1_GEOMETRIEAN
  6
VOLLINIE
 62
    18
 10
-4.564042966256162
 20
-61.01263004378497
 30
0.0
 11
-4.463744942665615
 21
-61.10656939283025
 31
0.0
  0
LINE
  5
151
  8
BLATTANSICHT_1_GEOMETRIEAN
  6
VOLLINIE
 62
    18
 10
-4.670270171132053
 20
-60.92545163029015
 30
0.0
 11
-4.564042966256162
 21
-61.01263004378497
 31
0.0
  0
LINE
  5
152
  8
BLATTANSICHT_1_GEOMETRIEAN
  6
VOLLINIE
 62
    18
 10
-4.781971676146735
 20
-60.84540746365275
 30
0.0
 11
-4.670270171132053
 21
-60.92545163029015
 31
0.0
  0
LINE
  5
153
  8
BLATTANSICHT_1_GEOMETRIEAN
  6
VOLLINIE
 62
    18
 10
-4.898669166803846
 20
-60.7728403003695
 30
0.0
 11
-4.781971676146735
 21
-60.84540746365275
 31
0.0
  0
LINE
  5
154
  8
BLATTANSICHT_1_GEOMETRIEAN
  6
VOLLINIE
 62
    18
 10
-5.019862918787257
 20
-60.70806089011571
 30
0.0
 11
-4.898669166803846
 21
-60.7728403003695
 31
0.0
  0
LINE
  5
155
  8
BLATTANSICHT_1_GEOMETRIEAN
  6
VOLLINIE
 62
    18
 10
-5.14503396183186
 20
-60.65134662827821
 30
0.0
 11
-5.019862918787257
 21
-60.70806089011571
 31
0.0
  0
LINE
  5
156
  8
BLATTANSICHT_1_GEOMETRIEAN
  6
VOLLINIE
 62
    18
 10
-5.273646296542425
 20
-60.60294037327849
 30
0.0
 11
-5.14503396183186
 21
-60.65134662827821
 31
0.0
  0
LINE
  5
157
  8
BLATTANSICHT_1_GEOMETRIEAN
  6
VOLLINIE
 62
    18
 10
-5.405149183001161
 20
-60.56304940919109
 30
0.0
 11
-5.273646296542425
 21
-60.60294037327849
 31
0.0
  0
LINE
  5
158
  8
BLATTANSICHT_1_GEOMETRIEAN
  6
VOLLINIE
 62
    18
 10
-5.538979505625934
 20
-60.53184455525862
 30
0.0
 11
-5.405149183001161
 21
-60.56304940919109
 31
0.0
  0
LINE
  5
159
  8
BLATTANSICHT_1_GEOMETRIEAN
  6
VOLLINIE
 62
    18
 10
-5.674564173912874
 20
-60.50945943658095
 30
0.0
 11
-5.538979505625934
 21
-60.53184455525862
 31
0.0
  0
LINE
  5
15A
  8
BLATTANSICHT_1_GEOMETRIEAN
  6
VOLLINIE
 62
    18
 10
-5.811322601798485
 20
-60.49598990745237
 30
0.0
 11
-5.674564173912874
 21
-60.50945943658095
 31
0.0
  0
LINE
  5
15B
  8
BLATTANSICHT_1_GEOMETRIEAN
  6
VOLLINIE
 62
    18
 10
-5.948669168736965
 20
-60.49149364640277
 30
0.0
 11
-5.811322601798485
 21
-60.49598990745237
 31
0.0
  0
LINE
  5
15C
  8
BLATTANSICHT_1_GEOMETRIEAN
  6
VOLLINIE
 62
    18
 10
-6.086015741305113
 20
-60.49598990675982
 30
0.0
 11
-5.948669168736965
 21
-60.49149364640277
 31
0.0
  0
LINE
  5
15D
  8
BLATTANSICHT_1_GEOMETRIEAN
  6
VOLLINIE
 62
    18
 10
-6.222774174381446
 20
-60.50945943683128
 30
0.0
 11
-6.086015741305113
 21
-60.49598990675982
 31
0.0
  0
LINE
  5
15E
  8
BLATTANSICHT_1_GEOMETRIEAN
  6
VOLLINIE
 62
    18
 10
-6.358358847730226
 20
-60.53184455712898
 30
0.0
 11
-6.222774174381446
 21
-60.50945943683128
 31
0.0
  0
LINE
  5
15F
  8
BLATTANSICHT_1_GEOMETRIEAN
  6
VOLLINIE
 62
    18
 10
-6.492189162643057
 20
-60.56304940997385
 30
0.0
 11
-6.358358847730226
 21
-60.53184455712898
 31
0.0
  0
LINE
  5
160
  8
BLATTANSICHT_1_GEOMETRIEAN
  6
VOLLINIE
 62
    18
 10
-6.623692041624923
 20
-60.60294037198555
 30
0.0
 11
-6.492189162643057
 21
-60.56304940997385
 31
0.0
  0
LINE
  5
161
  8
BLATTANSICHT_1_GEOMETRIEAN
  6
VOLLINIE
 62
    18
 10
-6.752304369189287
 20
-60.65134662394968
 30
0.0
 11
-6.623692041624923
 21
-60.60294037198555
 31
0.0
  0
LINE
  5
162
  8
BLATTANSICHT_1_GEOMETRIEAN
  6
VOLLINIE
 62
    18
 10
-22.9486691691141
 20
-60.09149364640277
 30
0.0
 11
-11.9486691691141
 21
-60.09149364640277
 31
0.0
  0
LINE
  5
163
  8
BLATTANSICHT_1_GEOMETRIEAN
  6
VOLLINIE
 62
    18
 10
-11.94866916011409
 20
-40.09149366350677
 30
0.0
 11
-22.9486691691141
 21
-40.09149364845526
 31
0.0
  0
LINE
  5
164
  8
BLATTANSICHT_1_GEOMETRIEAN
  6
VOLLINIE
 62
    18
 10
-4.065236412173928
 20
-36.66268739827035
 30
0.0
 11
-4.008522149294476
 21
-36.78785844440995
 31
0.0
  0
LINE
  5
165
  8
BLATTANSICHT_1_GEOMETRIEAN
  6
VOLLINIE
 62
    18
 10
-4.130015823857482
 20
-36.54149364336701
 30
0.0
 11
-4.065236412173928
 21
-36.66268739827035
 31
0.0
  0
LINE
  5
166
  8
BLATTANSICHT_1_GEOMETRIEAN
  6
VOLLINIE
 62
    18
 10
-4.202582988939065
 20
-36.42479615000205
 30
0.0
 11
-4.130015823857482
 21
-36.54149364336701
 31
0.0
  0
LINE
  5
167
  8
BLATTANSICHT_1_GEOMETRIEAN
  6
VOLLINIE
 62
    18
 10
-4.282627161888787
 20
-36.31309463709524
 30
0.0
 11
-4.202582988939065
 21
-36.42479615000205
 31
0.0
  0
LINE
  5
168
  8
BLATTANSICHT_1_GEOMETRIEAN
  6
VOLLINIE
 62
    18
 10
-4.369805582709365
 20
-36.20686742517614
 30
0.0
 11
-4.282627161888787
 21
-36.31309463709524
 31
0.0
  0
LINE
  5
169
  8
BLATTANSICHT_1_GEOMETRIEAN
  6
VOLLINIE
 62
    18
 10
-4.463744940007605
 20
-36.10656939548827
 30
0.0
 11
-4.369805582709365
 21
-36.20686742517614
 31
0.0
  0
LINE
  5
16A
  8
BLATTANSICHT_1_GEOMETRIEAN
  6
VOLLINIE
 62
    18
 10
-4.56404296363189
 20
-36.0126300460864
 30
0.0
 11
-4.463744940007605
 21
-36.10656939548827
 31
0.0
  0
LINE
  5
16B
  8
BLATTANSICHT_1_GEOMETRIEAN
  6
VOLLINIE
 62
    18
 10
-4.670270168575922
 20
-35.92545163225155
 30
0.0
 11
-4.56404296363189
 21
-36.0126300460864
 31
0.0
  0
LINE
  5
16C
  8
BLATTANSICHT_1_GEOMETRIEAN
  6
VOLLINIE
 62
    18
 10
-4.781971673691063
 20
-35.84540746529358
 30
0.0
 11
-4.670270168575922
 21
-35.92545163225155
 31
0.0
  0
LINE
  5
16D
  8
BLATTANSICHT_1_GEOMETRIEAN
  6
VOLLINIE
 62
    18
 10
-4.922564558935902
 20
-35.75925203381389
 30
0.0
 11
-4.781971673691063
 21
-35.84540746529358
 31
0.0
  0
LINE
  5
16E
  8
BLATTANSICHT_1_GEOMETRIEAN
  6
VOLLINIE
 62
    18
 10
-5.069483720620568
 20
-35.68439298169061
 30
0.0
 11
-4.922564558935902
 21
-35.75925203381389
 31
0.0
  0
LINE
  5
16F
  8
BLATTANSICHT_1_GEOMETRIEAN
  6
VOLLINIE
 62
    18
 10
-5.221823353215006
 20
-35.62129183989499
 30
0.0
 11
-5.069483720620568
 21
-35.68439298169061
 31
0.0
  0
LINE
  5
170
  8
BLATTANSICHT_1_GEOMETRIEAN
  6
VOLLINIE
 62
    18
 10
-5.378644232181943
 20
-35.57033764796775
 30
0.0
 11
-5.221823353215006
 21
-35.62129183989499
 31
0.0
  0
LINE
  5
171
  8
BLATTANSICHT_1_GEOMETRIEAN
  6
VOLLINIE
 62
    18
 10
-5.538979504608761
 20
-35.53184455546095
 30
0.0
 11
-5.378644232181943
 21
-35.57033764796775
 31
0.0
  0
LINE
  5
172
  8
BLATTANSICHT_1_GEOMETRIEAN
  6
VOLLINIE
 62
    18
 10
-5.674564173227386
 20
-35.50945943667121
 30
0.0
 11
-5.538979504608761
 21
-35.53184455546095
 31
0.0
  0
LINE
  5
173
  8
BLATTANSICHT_1_GEOMETRIEAN
  6
VOLLINIE
 62
    18
 10
-5.811322601453524
 20
-35.49598990747499
 30
0.0
 11
-5.674564173227386
 21
-35.50945943667121
 31
0.0
  0
LINE
  5
174
  8
BLATTANSICHT_1_GEOMETRIEAN
  6
VOLLINIE
 62
    18
 10
-5.948669168736965
 20
-35.49149364640278
 30
0.0
 11
-5.811322601453524
 21
-35.49598990747499
 31
0.0
  0
LINE
  5
175
  8
BLATTANSICHT_1_GEOMETRIEAN
  6
VOLLINIE
 62
    18
 10
-6.086015741650074
 20
-35.49598990678245
 30
0.0
 11
-5.948669168736965
 21
-35.49149364640278
 31
0.0
  0
LINE
  5
176
  8
BLATTANSICHT_1_GEOMETRIEAN
  6
VOLLINIE
 62
    18
 10
-6.222774175066924
 20
-35.50945943692154
 30
0.0
 11
-6.086015741650074
 21
-35.49598990678245
 31
0.0
  0
LINE
  5
177
  8
BLATTANSICHT_1_GEOMETRIEAN
  6
VOLLINIE
 62
    18
 10
-6.3583588487474
 20
-35.53184455733132
 30
0.0
 11
-6.222774175066924
 21
-35.50945943692154
 31
0.0
  0
LINE
  5
178
  8
BLATTANSICHT_1_GEOMETRIEAN
  6
VOLLINIE
 62
    18
 10
-6.51869411663572
 20
-35.57033764973657
 30
0.0
 11
-6.3583588487474
 21
-35.53184455733132
 31
0.0
  0
LINE
  5
179
  8
BLATTANSICHT_1_GEOMETRIEAN
  6
VOLLINIE
 62
    18
 10
-6.675514991193853
 20
-35.62129184087489
 30
0.0
 11
-6.51869411663572
 21
-35.57033764973657
 31
0.0
  0
LINE
  5
17A
  8
BLATTANSICHT_1_GEOMETRIEAN
  6
VOLLINIE
 62
    18
 10
-6.82785461958838
 20
-35.68439298121604
 30
0.0
 11
-6.675514991193853
 21
-35.62129184087489
 31
0.0
  0
LINE
  5
17B
  8
BLATTANSICHT_1_GEOMETRIEAN
  6
VOLLINIE
 62
    18
 10
-6.974773777358491
 20
-35.75925203124915
 30
0.0
 11
-6.82785461958838
 21
-35.68439298121604
 31
0.0
  0
LINE
  5
17C
  8
BLATTANSICHT_1_GEOMETRIEAN
  6
VOLLINIE
 62
    18
 10
-7.115366659047003
 20
-35.8454074600407
 30
0.0
 11
-6.974773777358491
 21
-35.75925203124915
 31
0.0
  0
LINE
  5
17D
  8
BLATTANSICHT_1_GEOMETRIEAN
  6
VOLLINIE
 62
    18
 10
-7.227068169404044
 20
-35.9254516303824
 30
0.0
 11
-7.115366659047003
 21
-35.8454074600407
 31
0.0
  0
LINE
  5
17E
  8
BLATTANSICHT_1_GEOMETRIEAN
  6
VOLLINIE
 62
    18
 10
-7.333295379098604
 20
-36.01263004825199
 30
0.0
 11
-7.227068169404044
 21
-35.9254516303824
 31
0.0
  0
LINE
  5
17F
  8
BLATTANSICHT_1_GEOMETRIEAN
  6
VOLLINIE
 62
    18
 10
-7.433593406920432
 20
-36.10656940228844
 30
0.0
 11
-7.333295379098604
 21
-36.01263004825199
 31
0.0
  0
LINE
  5
180
  8
BLATTANSICHT_1_GEOMETRIEAN
  6
VOLLINIE
 62
    18
 10
-7.527532760245023
 20
-36.2068674285324
 30
0.0
 11
-7.433593406920432
 21
-36.10656940228844
 31
0.0
  0
LINE
  5
181
  8
BLATTANSICHT_1_GEOMETRIEAN
  6
VOLLINIE
 62
    18
 10
-7.614711177590375
 20
-36.31309463653787
 30
0.0
 11
-7.527532760245023
 21
-36.2068674285324
 31
0.0
  0
LINE
  5
182
  8
BLATTANSICHT_1_GEOMETRIEAN
  6
VOLLINIE
 62
    18
 10
-7.694755347606633
 20
-36.42479614511265
 30
0.0
 11
-7.614711177590375
 21
-36.31309463653787
 31
0.0
  0
LINE
  5
183
  8
BLATTANSICHT_1_GEOMETRIEAN
  6
VOLLINIE
 62
    18
 10
-7.767322513252841
 20
-36.54149363883579
 30
0.0
 11
-7.694755347606633
 21
-36.42479614511265
 31
0.0
  0
LINE
  5
184
  8
BLATTANSICHT_1_GEOMETRIEAN
  6
VOLLINIE
 62
    18
 10
-7.83210192544161
 20
-36.66268739415209
 30
0.0
 11
-7.767322513252841
 21
-36.54149363883579
 31
0.0
  0
LINE
  5
185
  8
BLATTANSICHT_1_GEOMETRIEAN
  6
VOLLINIE
 62
    18
 10
-7.888816188762251
 20
-36.78785844075306
 30
0.0
 11
-7.83210192544161
 21
-36.66268739415209
 31
0.0
  0
LINE
  5
186
  8
BLATTANSICHT_1_GEOMETRIEAN
  6
VOLLINIE
 62
    18
 10
-7.949496928419196
 20
-36.95377248561775
 30
0.0
 11
-7.888816188762251
 21
-36.78785844075306
 31
0.0
  0
LINE
  5
187
  8
BLATTANSICHT_1_GEOMETRIEAN
  6
VOLLINIE
 62
    18
 10
-7.996017786227756
 20
-37.12419969071551
 30
0.0
 11
-7.949496928419196
 21
-36.95377248561775
 31
0.0
  0
LINE
  5
188
  8
BLATTANSICHT_1_GEOMETRIEAN
  6
VOLLINIE
 62
    18
 10
-8.028049533523964
 20
-37.29793394068895
 30
0.0
 11
-7.996017786227756
 21
-37.12419969071551
 31
0.0
  0
LINE
  5
189
  8
BLATTANSICHT_1_GEOMETRIEAN
  6
VOLLINIE
 62
    18
 10
-8.045365481251231
 20
-37.47374571618474
 30
0.0
 11
-8.028049533523964
 21
-37.29793394068895
 31
0.0
  0
LINE
  5
18A
  8
BLATTANSICHT_1_GEOMETRIEAN
  6
VOLLINIE
 62
    18
 10
-8.047843084241547
 20
-37.65039079517678
 30
0.0
 11
-8.045365481251231
 21
-37.47374571618474
 31
0.0
  0
LINE
  5
18B
  8
BLATTANSICHT_1_GEOMETRIEAN
  6
VOLLINIE
 62
    18
 10
-8.035464808469092
 20
-37.82661905834016
 30
0.0
 11
-8.047843084241547
 21
-37.65039079517678
 31
0.0
  0
LINE
  5
18C
  8
BLATTANSICHT_1_GEOMETRIEAN
  6
VOLLINIE
 62
    18
 10
-8.008318255138732
 20
-38.00118333616056
 30
0.0
 11
-8.035464808469092
 21
-37.82661905834016
 31
0.0
  0
LINE
  5
18D
  8
BLATTANSICHT_1_GEOMETRIEAN
  6
VOLLINIE
 62
    18
 10
-7.76758521379237
 20
-68.3091456489657
 30
0.0
 11
-7.752903966161005
 21
-68.31379535033835
 31
0.0
  0
LINE
  5
18E
  8
BLATTANSICHT_1_GEOMETRIEAN
  6
VOLLINIE
 62
    18
 10
-8.116119166237027
 20
-68.1863270228289
 30
0.0
 11
-7.76758521379237
 21
-68.3091456489657
 31
0.0
  0
LINE
  5
18F
  8
BLATTANSICHT_1_GEOMETRIEAN
  6
VOLLINIE
 62
    18
 10
-11.94582348739429
 20
-62.77626399773978
 30
0.0
 11
-11.93582270971957
 21
-62.98391241751982
 31
0.0
  0
LINE
  5
190
  8
BLATTANSICHT_1_GEOMETRIEAN
  6
VOLLINIE
 62
    18
 10
-11.9486691691141
 20
-62.59149364640276
 30
0.0
 11
-11.94582348739429
 21
-62.77626399773978
 31
0.0
  0
LINE
  5
191
  8
BLATTANSICHT_1_GEOMETRIEAN
  6
VOLLINIE
 62
    18
 10
-11.92307422688431
 20
-63.14510380318258
 30
0.0
 11
-11.89733833947195
 21
-63.37465079002653
 31
0.0
  0
LINE
  5
192
  8
BLATTANSICHT_1_GEOMETRIEAN
  6
VOLLINIE
 62
    18
 10
-11.93582270971957
 20
-62.98391241751982
 30
0.0
 11
-11.92307422688431
 21
-63.14510380318258
 31
0.0
  0
LINE
  5
193
  8
BLATTANSICHT_1_GEOMETRIEAN
  6
VOLLINIE
 62
    18
 10
-11.87766200160166
 20
-63.51184357567488
 30
0.0
 11
-11.83338085529814
 21
-63.7620355635021
 31
0.0
  0
LINE
  5
194
  8
BLATTANSICHT_1_GEOMETRIEAN
  6
VOLLINIE
 62
    18
 10
-11.89733833947195
 20
-63.37465079002653
 30
0.0
 11
-11.87766200160166
 21
-63.51184357567488
 31
0.0
  0
LINE
  5
195
  8
BLATTANSICHT_1_GEOMETRIEAN
  6
VOLLINIE
 62
    18
 10
-11.80975907567171
 20
-63.87509214564176
 30
0.0
 11
-11.74422413097785
 21
-64.14440790430538
 31
0.0
  0
LINE
  5
196
  8
BLATTANSICHT_1_GEOMETRIEAN
  6
VOLLINIE
 62
    18
 10
-11.83338085529814
 20
-63.7620355635021
 30
0.0
 11
-11.80975907567171
 21
-63.87509214564176
 31
0.0
  0
LINE
  5
197
  8
BLATTANSICHT_1_GEOMETRIEAN
  6
VOLLINIE
 62
    18
 10
-11.71962302815102
 20
-64.23347158683526
 30
0.0
 11
-11.63024995029432
 21
-64.52013042777239
 31
0.0
  0
LINE
  5
198
  8
BLATTANSICHT_1_GEOMETRIEAN
  6
VOLLINIE
 62
    18
 10
-11.74422413097785
 20
-64.14440790430538
 30
0.0
 11
-11.71962302815102
 21
-64.23347158683526
 31
0.0
  0
LINE
  5
199
  8
BLATTANSICHT_1_GEOMETRIEAN
  6
VOLLINIE
 62
    18
 10
-11.60759577594176
 20
-64.58562244328073
 30
0.0
 11
-11.49194636819217
 21
-64.88759423235811
 31
0.0
  0
LINE
  5
19A
  8
BLATTANSICHT_1_GEOMETRIEAN
  6
VOLLINIE
 62
    18
 10
-11.63024995029432
 20
-64.52013042777239
 30
0.0
 11
-11.60759577594176
 21
-64.58562244328073
 31
0.0
  0
LINE
  5
19B
  8
BLATTANSICHT_1_GEOMETRIEAN
  6
VOLLINIE
 62
    18
 10
-11.14482158821731
 20
-65.59149365344274
 30
0.0
 11
-10.95028348044082
 21
-65.9056834841658
 31
0.0
  0
LINE
  5
19C
  8
BLATTANSICHT_1_GEOMETRIEAN
  6
VOLLINIE
 62
    18
 10
-10.95028348044082
 20
-65.9056834841658
 30
0.0
 11
-10.93748683406866
 21
-65.92491505835639
 31
0.0
  0
LINE
  5
19D
  8
BLATTANSICHT_1_GEOMETRIEAN
  6
VOLLINIE
 62
    18
 10
-10.50509866904235
 20
-66.49520344762821
 30
0.0
 11
-10.45970800742755
 21
-66.54756854472046
 31
0.0
  0
LINE
  5
19E
  8
BLATTANSICHT_1_GEOMETRIEAN
  6
VOLLINIE
 62
    18
 10
-10.70878920296941
 20
-66.24406223113162
 30
0.0
 11
-10.50509866904235
 21
-66.49520344762821
 31
0.0
  0
LINE
  5
19F
  8
BLATTANSICHT_1_GEOMETRIEAN
  6
VOLLINIE
 62
    18
 10
-10.25614070750076
 20
-66.76829732218033
 30
0.0
 11
-10.19130985134505
 21
-66.8341343385137
 31
0.0
  0
LINE
  5
1A0
  8
BLATTANSICHT_1_GEOMETRIEAN
  6
VOLLINIE
 62
    18
 10
-10.45970800742755
 20
-66.54756854472046
 30
0.0
 11
-10.25614070750076
 21
-66.76829732218033
 31
0.0
  0
LINE
  5
1A1
  8
BLATTANSICHT_1_GEOMETRIEAN
  6
VOLLINIE
 62
    18
 10
-7.412151489764376
 20
-68.41027526261283
 30
0.0
 11
-7.247306854766042
 21
-68.44926968803783
 31
0.0
  0
LINE
  5
1A2
  8
BLATTANSICHT_1_GEOMETRIEAN
  6
VOLLINIE
 62
    18
 10
-7.752903966161005
 20
-68.31379535033835
 30
0.0
 11
-7.412151489764376
 21
-68.41027526261283
 31
0.0
  0
LINE
  5
1A3
  8
BLATTANSICHT_1_GEOMETRIEAN
  6
VOLLINIE
 62
    18
 10
-7.051166276013533
 20
-68.48933224450619
 30
0.0
 11
-6.731826326529847
 21
-68.54016281338494
 31
0.0
  0
LINE
  5
1A4
  8
BLATTANSICHT_1_GEOMETRIEAN
  6
VOLLINIE
 62
    18
 10
-7.247306854766042
 20
-68.44926968803783
 30
0.0
 11
-7.051166276013533
 21
-68.48933224450619
 31
0.0
  0
LINE
  5
1A5
  8
BLATTANSICHT_1_GEOMETRIEAN
  6
VOLLINIE
 62
    18
 10
-6.731826326529847
 20
-68.54016281338494
 30
0.0
 11
-6.685998913102405
 21
-68.5460167044344
 31
0.0
  0
LINE
  5
1A6
  8
BLATTANSICHT_1_GEOMETRIEAN
  6
VOLLINIE
 62
    18
 10
-6.685998913102405
 20
-68.5460167044344
 30
0.0
 11
-6.318034605917777
 21
-68.58011361882504
 31
0.0
  0
LINE
  5
1A7
  8
BLATTANSICHT_1_GEOMETRIEAN
  6
VOLLINIE
 62
    18
 10
-6.318034605917777
 20
-68.58011361882504
 30
0.0
 11
-6.210385499496899
 21
-68.58578297481853
 31
0.0
  0
LINE
  5
1A8
  8
BLATTANSICHT_1_GEOMETRIEAN
  6
VOLLINIE
 62
    18
 10
-6.210385499496899
 20
-68.58578297481853
 30
0.0
 11
-5.948669169114118
 21
-68.59149364640277
 31
0.0
  0
LINE
  5
1A9
  8
BLATTANSICHT_1_GEOMETRIEAN
  6
VOLLINIE
 62
    18
 10
-5.948669169114118
 20
-68.59149364640277
 30
0.0
 11
-5.686952853184084
 21
-68.58578297536661
 31
0.0
  0
LINE
  5
1AA
  8
BLATTANSICHT_1_GEOMETRIEAN
  6
VOLLINIE
 62
    18
 10
-5.686952853184084
 20
-68.58578297536661
 30
0.0
 11
-5.57930373231046
 21
-68.58011361882504
 31
0.0
  0
LINE
  5
1AB
  8
BLATTANSICHT_1_GEOMETRIEAN
  6
VOLLINIE
 62
    18
 10
-5.57930373231046
 20
-68.58011361882504
 30
0.0
 11
-5.211339425125832
 21
-68.5460167044344
 31
0.0
  0
LINE
  5
1AC
  8
BLATTANSICHT_1_GEOMETRIEAN
  6
VOLLINIE
 62
    18
 10
-5.211339425125832
 20
-68.5460167044344
 30
0.0
 11
-5.165512026055596
 21
-68.54016281502501
 31
0.0
  0
LINE
  5
1AD
  8
BLATTANSICHT_1_GEOMETRIEAN
  6
VOLLINIE
 62
    18
 10
-4.846172062214704
 20
-68.4893322445062
 30
0.0
 11
-4.650031497629053
 21
-68.44926969075739
 31
0.0
  0
LINE
  5
1AE
  8
BLATTANSICHT_1_GEOMETRIEAN
  6
VOLLINIE
 62
    18
 10
-5.165512026055596
 20
-68.54016281502501
 30
0.0
 11
-4.846172062214704
 21
-68.4893322445062
 31
0.0
  0
LINE
  5
1AF
  8
BLATTANSICHT_1_GEOMETRIEAN
  6
VOLLINIE
 62
    18
 10
-4.485186848463861
 20
-68.41027526261283
 30
0.0
 11
-4.144434385950389
 21
-68.31379535411672
 31
0.0
  0
LINE
  5
1B0
  8
BLATTANSICHT_1_GEOMETRIEAN
  6
VOLLINIE
 62
    18
 10
-4.650031497629053
 20
-68.44926969075739
 30
0.0
 11
-4.485186848463861
 21
-68.41027526261283
 31
0.0
  0
LINE
  5
1B1
  8
BLATTANSICHT_1_GEOMETRIEAN
  6
VOLLINIE
 62
    18
 10
-4.129753124435867
 20
-68.30914564896572
 30
0.0
 11
-3.78121917199121
 21
-68.18632702282892
 31
0.0
  0
LINE
  5
1B2
  8
BLATTANSICHT_1_GEOMETRIEAN
  6
VOLLINIE
 62
    18
 10
-4.144434385950389
 20
-68.31379535411672
 30
0.0
 11
-4.129753124435867
 21
-68.30914564896572
 31
0.0
  0
LINE
  5
1B3
  8
BLATTANSICHT_1_GEOMETRIEAN
  6
VOLLINIE
 62
    18
 10
-3.78121917199121
 20
-68.18632702282892
 30
0.0
 11
-3.652568590296914
 21
-68.13477084659833
 31
0.0
  0
LINE
  5
1B4
  8
BLATTANSICHT_1_GEOMETRIEAN
  6
VOLLINIE
 62
    18
 10
-3.44090709979342
 20
-68.04228527731992
 30
0.0
 11
-3.29493703550921
 21
-67.97273009808562
 31
0.0
  0
LINE
  5
1B5
  8
BLATTANSICHT_1_GEOMETRIEAN
  6
VOLLINIE
 62
    18
 10
-3.652568590296914
 20
-68.13477084659833
 30
0.0
 11
-3.44090709979342
 21
-68.04228527731992
 31
0.0
  0
LINE
  5
1B6
  8
BLATTANSICHT_1_GEOMETRIEAN
  6
VOLLINIE
 62
    18
 10
-0.5776894209837393
 20
-65.26592378106203
 30
0.0
 11
-0.5674327189904581
 21
-65.24522578306326
 31
0.0
  0
LINE
  5
1B7
  8
BLATTANSICHT_1_GEOMETRIEAN
  6
VOLLINIE
 62
    18
 10
-0.7525167491969152
 20
-65.59149364874244
 30
0.0
 11
-0.5776894209837393
 21
-65.26592378106203
 31
0.0
  0
LINE
  5
1B8
  8
BLATTANSICHT_1_GEOMETRIEAN
  6
VOLLINIE
 62
    18
 10
-0.423236061444394
 20
-64.93020888615887
 30
0.0
 11
-0.4053919703395549
 21
-64.88759422850448
 31
0.0
  0
LINE
  5
1B9
  8
BLATTANSICHT_1_GEOMETRIEAN
  6
VOLLINIE
 62
    18
 10
-0.5674327189904581
 20
-65.24522578306326
 30
0.0
 11
-0.423236061444394
 21
-64.93020888615887
 31
0.0
  0
LINE
  5
1BA
  8
BLATTANSICHT_1_GEOMETRIEAN
  6
VOLLINIE
 62
    18
 10
-0.2897425622864531
 20
-64.58562244328076
 30
0.0
 11
-0.2670883892240669
 21
-64.52013042597667
 31
0.0
  0
LINE
  5
1BB
  8
BLATTANSICHT_1_GEOMETRIEAN
  6
VOLLINIE
 62
    18
 10
-0.4053919703395549
 20
-64.88759422850448
 30
0.0
 11
-0.2897425622864531
 21
-64.58562244328076
 31
0.0
  0
LINE
  5
1BC
  8
BLATTANSICHT_1_GEOMETRIEAN
  6
VOLLINIE
 62
    18
 10
-0.1777153100771962
 20
-64.23347158683531
 30
0.0
 11
-0.1531142092480396
 21
-64.14440790467094
 31
0.0
  0
LINE
  5
1BD
  8
BLATTANSICHT_1_GEOMETRIEAN
  6
VOLLINIE
 62
    18
 10
-0.2670883892240669
 20
-64.52013042597667
 30
0.0
 11
-0.1777153100771962
 21
-64.23347158683531
 31
0.0
  0
LINE
  5
1BE
  8
BLATTANSICHT_1_GEOMETRIEAN
  6
VOLLINIE
 62
    18
 10
-0.0875792625565038
 20
-63.87509214564179
 30
0.0
 11
-0.0639574853474288
 21
-63.76203556610438
 31
0.0
  0
LINE
  5
1BF
  8
BLATTANSICHT_1_GEOMETRIEAN
  6
VOLLINIE
 62
    18
 10
-0.1531142092480396
 20
-64.14440790467094
 30
0.0
 11
-0.0875792625565038
 21
-63.87509214564179
 31
0.0
  0
LINE
  5
1C0
  8
BLATTANSICHT_1_GEOMETRIEAN
  6
VOLLINIE
 62
    18
 10
-0.0196763366265468
 20
-63.51184357567492
 30
0.0
 11
-0.0000000009337473
 21
-63.37465079213635
 31
0.0
  0
LINE
  5
1C1
  8
BLATTANSICHT_1_GEOMETRIEAN
  6
VOLLINIE
 62
    18
 10
-0.0639574853474288
 20
-63.76203556610438
 30
0.0
 11
-0.0196763366265468
 21
-63.51184357567492
 31
0.0
  0
LINE
  5
1C2
  8
BLATTANSICHT_1_GEOMETRIEAN
  6
VOLLINIE
 62
    18
 10
0.0257358886561073
 20
-63.14510380318261
 30
0.0
 11
0.0384843694867957
 21
-62.98391241911916
 31
0.0
  0
LINE
  5
1C3
  8
BLATTANSICHT_1_GEOMETRIEAN
  6
VOLLINIE
 62
    18
 10
-0.0000000009337473
 20
-63.37465079213635
 30
0.0
 11
0.0257358886561073
 21
-63.14510380318261
 31
0.0
  0
LINE
  5
1C4
  8
BLATTANSICHT_1_GEOMETRIEAN
  6
VOLLINIE
 62
    18
 10
0.0484851491660904
 20
-62.77626399773983
 30
0.0
 11
0.0513308308858932
 21
-62.59149364640276
 31
0.0
  0
LINE
  5
1C5
  8
BLATTANSICHT_1_GEOMETRIEAN
  6
VOLLINIE
 62
    18
 10
0.0384843694867957
 20
-62.98391241911916
 30
0.0
 11
0.0484851491660904
 21
-62.77626399773983
 31
0.0
  0
LINE
  5
1C6
  8
BLATTANSICHT_1_GEOMETRIEAN
  6
VOLLINIE
 62
    18
 10
-0.4066852679595776
 20
-64.88748636341646
 30
0.0
 11
-0.4067081349159689
 21
-64.88754538983505
 31
0.0
  0
LINE
  5
1C7
  8
BLATTANSICHT_1_GEOMETRIEAN
  6
VOLLINIE
 62
    18
 10
-0.9470548577873981
 20
-65.90568348416583
 30
0.0
 11
-0.7525167491969152
 21
-65.59149364874244
 31
0.0
  0
LINE
  5
1C8
  8
BLATTANSICHT_1_GEOMETRIEAN
  6
VOLLINIE
 62
    18
 10
-0.9598515026949863
 20
-65.92491505332137
 30
0.0
 11
-0.9470548577873981
 21
-65.90568348416583
 31
0.0
  0
LINE
  5
1C9
  8
BLATTANSICHT_1_GEOMETRIEAN
  6
VOLLINIE
 62
    18
 10
-1.16056580543268
 20
-66.20730146467834
 30
0.0
 11
-0.9598515026949863
 21
-65.92491505332137
 31
0.0
  0
LINE
  5
1CA
  8
BLATTANSICHT_1_GEOMETRIEAN
  6
VOLLINIE
 62
    18
 10
-1.18854913665239
 20
-66.244062230472
 30
0.0
 11
-1.16056580543268
 21
-66.20730146467834
 31
0.0
  0
LINE
  5
1CB
  8
BLATTANSICHT_1_GEOMETRIEAN
  6
VOLLINIE
 62
    18
 10
-1.392239669185879
 20
-66.49520344762826
 30
0.0
 11
-1.18854913665239
 21
-66.244062230472
 31
0.0
  0
LINE
  5
1CC
  8
BLATTANSICHT_1_GEOMETRIEAN
  6
VOLLINIE
 62
    18
 10
-1.437630335596695
 20
-66.54756854802305
 30
0.0
 11
-1.392239669185879
 21
-66.49520344762826
 31
0.0
  0
LINE
  5
1CD
  8
BLATTANSICHT_1_GEOMETRIEAN
  6
VOLLINIE
 62
    18
 10
-1.641197630727465
 20
-66.76829732218035
 30
0.0
 11
-1.437630335596695
 21
-66.54756854802305
 31
0.0
  0
LINE
  5
1CE
  8
BLATTANSICHT_1_GEOMETRIEAN
  6
VOLLINIE
 62
    18
 10
-1.706028495583023
 20
-66.83413434531383
 30
0.0
 11
-1.641197630727465
 21
-66.76829732218035
 31
0.0
  0
LINE
  5
1CF
  8
BLATTANSICHT_1_GEOMETRIEAN
  6
VOLLINIE
 62
    18
 10
-1.906495307234778
 20
-67.02554714972675
 30
0.0
 11
-1.706028495583023
 21
-66.83413434531383
 31
0.0
  0
LINE
  5
1D0
  8
BLATTANSICHT_1_GEOMETRIEAN
  6
VOLLINIE
 62
    18
 10
-1.992594286263272
 20
-67.10253249639325
 30
0.0
 11
-1.906495307234778
 21
-67.02554714972675
 31
0.0
  0
LINE
  5
1D1
  8
BLATTANSICHT_1_GEOMETRIEAN
  6
VOLLINIE
 62
    18
 10
-2.18712633374949
 20
-67.2659770935568
 30
0.0
 11
-1.992594286263272
 21
-67.10253249639325
 31
0.0
  0
LINE
  5
1D2
  8
BLATTANSICHT_1_GEOMETRIEAN
  6
VOLLINIE
 62
    18
 10
-2.29610059618213
 20
-67.35161368743444
 30
0.0
 11
-2.18712633374949
 21
-67.2659770935568
 31
0.0
  0
LINE
  5
1D3
  8
BLATTANSICHT_1_GEOMETRIEAN
  6
VOLLINIE
 62
    18
 10
-2.482026180664613
 20
-67.48867512054011
 30
0.0
 11
-2.29610059618213
 21
-67.35161368743444
 31
0.0
  0
LINE
  5
1D4
  8
BLATTANSICHT_1_GEOMETRIEAN
  6
VOLLINIE
 62
    18
 10
-2.615247764783806
 20
-67.58031131458561
 30
0.0
 11
-2.482026180664613
 21
-67.48867512054011
 31
0.0
  0
LINE
  5
1D5
  8
BLATTANSICHT_1_GEOMETRIEAN
  6
VOLLINIE
 62
    18
 10
-3.110107828098057
 20
-67.8775668121175
 30
0.0
 11
-2.94866916959724
 21
-67.78764606799338
 31
0.0
  0
LINE
  5
1D6
  8
BLATTANSICHT_1_GEOMETRIEAN
  6
VOLLINIE
 62
    18
 10
-3.29493703550921
 20
-67.97273009808562
 30
0.0
 11
-3.110107828098057
 21
-67.8775668121175
 31
0.0
  0
LINE
  5
1D7
  8
BLATTANSICHT_1_GEOMETRIEAN
  6
VOLLINIE
 62
    18
 10
-2.790076191849993
 20
-67.69279646078047
 30
0.0
 11
-2.615247764783806
 21
-67.58031131458561
 31
0.0
  0
LINE
  5
1D8
  8
BLATTANSICHT_1_GEOMETRIEAN
  6
VOLLINIE
 62
    18
 10
-2.94866916959724
 20
-67.78764606799338
 30
0.0
 11
-2.790076191849993
 21
-67.69279646078047
 31
0.0
  0
LINE
  5
1D9
  8
BLATTANSICHT_1_GEOMETRIEAN
  6
VOLLINIE
 62
    18
 10
-8.244769761439573
 20
-68.13477084178993
 30
0.0
 11
-8.116119166237027
 21
-68.1863270228289
 31
0.0
  0
LINE
  5
1DA
  8
BLATTANSICHT_1_GEOMETRIEAN
  6
VOLLINIE
 62
    18
 10
-8.456431238434805
 20
-68.04228527731992
 30
0.0
 11
-8.244769761439573
 21
-68.13477084178993
 31
0.0
  0
LINE
  5
1DB
  8
BLATTANSICHT_1_GEOMETRIEAN
  6
VOLLINIE
 62
    18
 10
-8.602401309422133
 20
-67.97273009571686
 30
0.0
 11
-8.456431238434805
 21
-68.04228527731992
 31
0.0
  0
LINE
  5
1DC
  8
BLATTANSICHT_1_GEOMETRIEAN
  6
VOLLINIE
 62
    18
 10
-8.787230510130168
 20
-67.87756681211748
 30
0.0
 11
-8.602401309422133
 21
-67.97273009571686
 31
0.0
  0
LINE
  5
1DD
  8
BLATTANSICHT_1_GEOMETRIEAN
  6
VOLLINIE
 62
    18
 10
-8.948669168925491
 20
-67.78764606892014
 30
0.0
 11
-8.787230510130168
 21
-67.87756681211748
 31
0.0
  0
LINE
  5
1DE
  8
BLATTANSICHT_1_GEOMETRIEAN
  6
VOLLINIE
 62
    18
 10
-9.107262146378243
 20
-67.69279646078046
 30
0.0
 11
-8.948669168925491
 21
-67.78764606892014
 31
0.0
  0
LINE
  5
1DF
  8
BLATTANSICHT_1_GEOMETRIEAN
  6
VOLLINIE
 62
    18
 10
-9.282090567808694
 20
-67.58031131962065
 30
0.0
 11
-9.107262146378243
 21
-67.69279646078046
 31
0.0
  0
LINE
  5
1E0
  8
BLATTANSICHT_1_GEOMETRIEAN
  6
VOLLINIE
 62
    18
 10
-9.415312157563612
 20
-67.48867512054011
 30
0.0
 11
-9.282090567808694
 21
-67.58031131962065
 31
0.0
  0
LINE
  5
1E1
  8
BLATTANSICHT_1_GEOMETRIEAN
  6
VOLLINIE
 62
    18
 10
-9.601237741695664
 20
-67.35161368916103
 30
0.0
 11
-9.415312157563612
 21
-67.48867512054011
 31
0.0
  0
LINE
  5
1E2
  8
BLATTANSICHT_1_GEOMETRIEAN
  6
VOLLINIE
 62
    18
 10
-11.47410227678382
 20
-64.93020888615885
 30
0.0
 11
-11.32990561901481
 21
-65.24522578736762
 31
0.0
  0
LINE
  5
1E3
  8
BLATTANSICHT_1_GEOMETRIEAN
  6
VOLLINIE
 62
    18
 10
-11.49194636819217
 20
-64.88759423235811
 30
0.0
 11
-11.47410227678382
 21
-64.93020888615885
 31
0.0
  0
LINE
  5
1E4
  8
BLATTANSICHT_1_GEOMETRIEAN
  6
VOLLINIE
 62
    18
 10
-11.31964891724447
 20
-65.265923781062
 30
0.0
 11
-11.14482158821731
 21
-65.59149365344274
 31
0.0
  0
LINE
  5
1E5
  8
BLATTANSICHT_1_GEOMETRIEAN
  6
VOLLINIE
 62
    18
 10
-11.32990561901481
 20
-65.24522578736762
 30
0.0
 11
-11.31964891724447
 21
-65.265923781062
 31
0.0
  0
LINE
  5
1E6
  8
BLATTANSICHT_1_GEOMETRIEAN
  6
VOLLINIE
 62
    18
 10
-9.990843030993448
 20
-67.02554714972673
 30
0.0
 11
-9.90474405641362
 21
-67.10253249415788
 31
0.0
  0
LINE
  5
1E7
  8
BLATTANSICHT_1_GEOMETRIEAN
  6
VOLLINIE
 62
    18
 10
-10.19130985134505
 20
-66.8341343385137
 30
0.0
 11
-9.990843030993448
 21
-67.02554714972673
 31
0.0
  0
LINE
  5
1E8
  8
BLATTANSICHT_1_GEOMETRIEAN
  6
VOLLINIE
 62
    18
 10
-9.710212004478747
 20
-67.2659770935568
 30
0.0
 11
-9.601237741695664
 21
-67.35161368916103
 31
0.0
  0
LINE
  5
1E9
  8
BLATTANSICHT_1_GEOMETRIEAN
  6
VOLLINIE
 62
    18
 10
-9.90474405641362
 20
-67.10253249415788
 30
0.0
 11
-9.710212004478747
 21
-67.2659770935568
 31
0.0
  0
LINE
  5
1EA
  8
BLATTANSICHT_1_GEOMETRIEAN
  6
VOLLINIE
 62
    18
 10
-10.73677253279554
 20
-66.20730146467831
 30
0.0
 11
-10.70878920296941
 21
-66.24406223113162
 31
0.0
  0
LINE
  5
1EB
  8
BLATTANSICHT_1_GEOMETRIEAN
  6
VOLLINIE
 62
    18
 10
-10.93748683406866
 20
-65.92491505835639
 30
0.0
 11
-10.73677253279554
 21
-66.20730146467831
 31
0.0
  0
LINE
  5
1EC
  8
BLATTANSICHT_1_GEOMETRIEAN
  6
VOLLINIE
 62
    18
 10
-11.93582270971957
 20
-62.98391241751982
 30
0.0
 11
-11.9486691691141
 21
-62.59149364640276
 31
0.0
  0
LINE
  5
1ED
  8
BLATTANSICHT_1_GEOMETRIEAN
  6
VOLLINIE
 62
    18
 10
-11.89733833947195
 20
-63.37465079002653
 30
0.0
 11
-11.93582270971957
 21
-62.98391241751982
 31
0.0
  0
LINE
  5
1EE
  8
BLATTANSICHT_1_GEOMETRIEAN
  6
VOLLINIE
 62
    18
 10
-11.83338085529814
 20
-63.7620355635021
 30
0.0
 11
-11.89733833947195
 21
-63.37465079002653
 31
0.0
  0
LINE
  5
1EF
  8
BLATTANSICHT_1_GEOMETRIEAN
  6
VOLLINIE
 62
    18
 10
-11.74422413097785
 20
-64.14440790430538
 30
0.0
 11
-11.83338085529814
 21
-63.7620355635021
 31
0.0
  0
LINE
  5
1F0
  8
BLATTANSICHT_1_GEOMETRIEAN
  6
VOLLINIE
 62
    18
 10
-11.63024995029432
 20
-64.52013042777239
 30
0.0
 11
-11.74422413097785
 21
-64.14440790430538
 31
0.0
  0
LINE
  5
1F1
  8
BLATTANSICHT_1_GEOMETRIEAN
  6
VOLLINIE
 62
    18
 10
-11.49194636819217
 20
-64.88759423235811
 30
0.0
 11
-11.63024995029432
 21
-64.52013042777239
 31
0.0
  0
LINE
  5
1F2
  8
BLATTANSICHT_1_GEOMETRIEAN
  6
VOLLINIE
 62
    18
 10
-10.93748683406866
 20
-65.92491505835639
 30
0.0
 11
-11.14482158821731
 21
-65.59149365344274
 31
0.0
  0
LINE
  5
1F3
  8
BLATTANSICHT_1_GEOMETRIEAN
  6
VOLLINIE
 62
    18
 10
-11.32990561901481
 20
-65.24522578736762
 30
0.0
 11
-11.49194636819217
 21
-64.88759423235811
 31
0.0
  0
LINE
  5
1F4
  8
BLATTANSICHT_1_GEOMETRIEAN
  6
VOLLINIE
 62
    18
 10
-11.14482158821731
 20
-65.59149365344274
 30
0.0
 11
-11.32990561901481
 21
-65.24522578736762
 31
0.0
  0
LINE
  5
1F5
  8
BLATTANSICHT_1_GEOMETRIEAN
  6
VOLLINIE
 62
    18
 10
-10.45970800742755
 20
-66.54756854472046
 30
0.0
 11
-10.70878920296941
 21
-66.24406223113162
 31
0.0
  0
LINE
  5
1F6
  8
BLATTANSICHT_1_GEOMETRIEAN
  6
VOLLINIE
 62
    18
 10
-10.19130985134505
 20
-66.8341343385137
 30
0.0
 11
-10.45970800742755
 21
-66.54756854472046
 31
0.0
  0
LINE
  5
1F7
  8
BLATTANSICHT_1_GEOMETRIEAN
  6
VOLLINIE
 62
    18
 10
-10.70878920296941
 20
-66.24406223113162
 30
0.0
 11
-10.93748683406866
 21
-65.92491505835639
 31
0.0
  0
LINE
  5
1F8
  8
BLATTANSICHT_1_GEOMETRIEAN
  6
VOLLINIE
 62
    18
 10
-7.247306854766042
 20
-68.44926968803783
 30
0.0
 11
-7.752903966161005
 21
-68.31379535033835
 31
0.0
  0
LINE
  5
1F9
  8
BLATTANSICHT_1_GEOMETRIEAN
  6
VOLLINIE
 62
    18
 10
-6.731826326529847
 20
-68.54016281338494
 30
0.0
 11
-7.247306854766042
 21
-68.44926968803783
 31
0.0
  0
LINE
  5
1FA
  8
BLATTANSICHT_1_GEOMETRIEAN
  6
VOLLINIE
 62
    18
 10
-6.210385499496899
 20
-68.58578297481853
 30
0.0
 11
-6.731826326529847
 21
-68.54016281338494
 31
0.0
  0
LINE
  5
1FB
  8
BLATTANSICHT_1_GEOMETRIEAN
  6
VOLLINIE
 62
    18
 10
-5.686952853184084
 20
-68.58578297536661
 30
0.0
 11
-6.210385499496899
 21
-68.58578297481853
 31
0.0
  0
LINE
  5
1FC
  8
BLATTANSICHT_1_GEOMETRIEAN
  6
VOLLINIE
 62
    18
 10
-5.165512026055596
 20
-68.54016281502501
 30
0.0
 11
-5.686952853184084
 21
-68.58578297536661
 31
0.0
  0
LINE
  5
1FD
  8
BLATTANSICHT_1_GEOMETRIEAN
  6
VOLLINIE
 62
    18
 10
-4.650031497629053
 20
-68.44926969075739
 30
0.0
 11
-5.165512026055596
 21
-68.54016281502501
 31
0.0
  0
LINE
  5
1FE
  8
BLATTANSICHT_1_GEOMETRIEAN
  6
VOLLINIE
 62
    18
 10
-4.144434385950389
 20
-68.31379535411672
 30
0.0
 11
-4.650031497629053
 21
-68.44926969075739
 31
0.0
  0
LINE
  5
1FF
  8
BLATTANSICHT_1_GEOMETRIEAN
  6
VOLLINIE
 62
    18
 10
-3.652568590296914
 20
-68.13477084659833
 30
0.0
 11
-4.144434385950389
 21
-68.31379535411672
 31
0.0
  0
LINE
  5
200
  8
BLATTANSICHT_1_GEOMETRIEAN
  6
VOLLINIE
 62
    18
 10
-7.752903966161005
 20
-68.31379535033835
 30
0.0
 11
-8.244769761439573
 21
-68.13477084178993
 31
0.0
  0
LINE
  5
201
  8
BLATTANSICHT_1_GEOMETRIEAN
  6
VOLLINIE
 62
    18
 10
-3.29493703550921
 20
-67.97273009808562
 30
0.0
 11
-3.652568590296914
 21
-68.13477084659833
 31
0.0
  0
LINE
  5
202
  8
BLATTANSICHT_1_GEOMETRIEAN
  6
VOLLINIE
 62
    18
 10
-2.94866916959724
 20
-67.78764606799338
 30
0.0
 11
-3.29493703550921
 21
-67.97273009808562
 31
0.0
  0
LINE
  5
203
  8
BLATTANSICHT_1_GEOMETRIEAN
  6
VOLLINIE
 62
    18
 10
-2.615247764783806
 20
-67.58031131458561
 30
0.0
 11
-2.94866916959724
 21
-67.78764606799338
 31
0.0
  0
LINE
  5
204
  8
BLATTANSICHT_1_GEOMETRIEAN
  6
VOLLINIE
 62
    18
 10
-0.5674327189904581
 20
-65.24522578306326
 30
0.0
 11
-0.7525167491969152
 21
-65.59149364874244
 31
0.0
  0
LINE
  5
205
  8
BLATTANSICHT_1_GEOMETRIEAN
  6
VOLLINIE
 62
    18
 10
-0.4053919703395549
 20
-64.88759422850448
 30
0.0
 11
-0.5674327189904581
 21
-65.24522578306326
 31
0.0
  0
LINE
  5
206
  8
BLATTANSICHT_1_GEOMETRIEAN
  6
VOLLINIE
 62
    18
 10
-0.7525167491969152
 20
-65.59149364874244
 30
0.0
 11
-0.9598515026949863
 21
-65.92491505332137
 31
0.0
  0
LINE
  5
207
  8
BLATTANSICHT_1_GEOMETRIEAN
  6
VOLLINIE
 62
    18
 10
-0.2670883892240669
 20
-64.52013042597667
 30
0.0
 11
-0.4053919703395549
 21
-64.88759422850448
 31
0.0
  0
LINE
  5
208
  8
BLATTANSICHT_1_GEOMETRIEAN
  6
VOLLINIE
 62
    18
 10
-0.1531142092480396
 20
-64.14440790467094
 30
0.0
 11
-0.2670883892240669
 21
-64.52013042597667
 31
0.0
  0
LINE
  5
209
  8
BLATTANSICHT_1_GEOMETRIEAN
  6
VOLLINIE
 62
    18
 10
-0.0639574853474288
 20
-63.76203556610438
 30
0.0
 11
-0.1531142092480396
 21
-64.14440790467094
 31
0.0
  0
LINE
  5
20A
  8
BLATTANSICHT_1_GEOMETRIEAN
  6
VOLLINIE
 62
    18
 10
-0.0000000009337473
 20
-63.37465079213635
 30
0.0
 11
-0.0639574853474288
 21
-63.76203556610438
 31
0.0
  0
LINE
  5
20B
  8
BLATTANSICHT_1_GEOMETRIEAN
  6
VOLLINIE
 62
    18
 10
0.0384843694867957
 20
-62.98391241911916
 30
0.0
 11
-0.0000000009337473
 21
-63.37465079213635
 31
0.0
  0
LINE
  5
20C
  8
BLATTANSICHT_1_GEOMETRIEAN
  6
VOLLINIE
 62
    18
 10
0.0513308308858932
 20
-62.59149364640276
 30
0.0
 11
0.0384843694867957
 21
-62.98391241911916
 31
0.0
  0
LINE
  5
20D
  8
BLATTANSICHT_1_GEOMETRIEAN
  6
VOLLINIE
 62
    18
 10
-0.9598515026949863
 20
-65.92491505332137
 30
0.0
 11
-1.18854913665239
 21
-66.244062230472
 31
0.0
  0
LINE
  5
20E
  8
BLATTANSICHT_1_GEOMETRIEAN
  6
VOLLINIE
 62
    18
 10
-1.18854913665239
 20
-66.244062230472
 30
0.0
 11
-1.437630335596695
 21
-66.54756854802305
 31
0.0
  0
LINE
  5
20F
  8
BLATTANSICHT_1_GEOMETRIEAN
  6
VOLLINIE
 62
    18
 10
-1.437630335596695
 20
-66.54756854802305
 30
0.0
 11
-1.706028495583023
 21
-66.83413434531383
 31
0.0
  0
LINE
  5
210
  8
BLATTANSICHT_1_GEOMETRIEAN
  6
VOLLINIE
 62
    18
 10
-1.706028495583023
 20
-66.83413434531383
 30
0.0
 11
-1.992594286263272
 21
-67.10253249639325
 31
0.0
  0
LINE
  5
211
  8
BLATTANSICHT_1_GEOMETRIEAN
  6
VOLLINIE
 62
    18
 10
-1.992594286263272
 20
-67.10253249639325
 30
0.0
 11
-2.29610059618213
 21
-67.35161368743444
 31
0.0
  0
LINE
  5
212
  8
BLATTANSICHT_1_GEOMETRIEAN
  6
VOLLINIE
 62
    18
 10
-2.29610059618213
 20
-67.35161368743444
 30
0.0
 11
-2.615247764783806
 21
-67.58031131458561
 31
0.0
  0
LINE
  5
213
  8
BLATTANSICHT_1_GEOMETRIEAN
  6
VOLLINIE
 62
    18
 10
-8.244769761439573
 20
-68.13477084178993
 30
0.0
 11
-8.602401309422133
 21
-67.97273009571686
 31
0.0
  0
LINE
  5
214
  8
BLATTANSICHT_1_GEOMETRIEAN
  6
VOLLINIE
 62
    18
 10
-8.602401309422133
 20
-67.97273009571686
 30
0.0
 11
-8.948669168925491
 21
-67.78764606892014
 31
0.0
  0
LINE
  5
215
  8
BLATTANSICHT_1_GEOMETRIEAN
  6
VOLLINIE
 62
    18
 10
-8.948669168925491
 20
-67.78764606892014
 30
0.0
 11
-9.282090567808694
 21
-67.58031131962065
 31
0.0
  0
LINE
  5
216
  8
BLATTANSICHT_1_GEOMETRIEAN
  6
VOLLINIE
 62
    18
 10
-9.282090567808694
 20
-67.58031131962065
 30
0.0
 11
-9.601237741695664
 21
-67.35161368916103
 31
0.0
  0
LINE
  5
217
  8
BLATTANSICHT_1_GEOMETRIEAN
  6
VOLLINIE
 62
    18
 10
-9.90474405641362
 20
-67.10253249415788
 30
0.0
 11
-10.19130985134505
 21
-66.8341343385137
 31
0.0
  0
LINE
  5
218
  8
BLATTANSICHT_1_GEOMETRIEAN
  6
VOLLINIE
 62
    18
 10
-9.601237741695664
 20
-67.35161368916103
 30
0.0
 11
-9.90474405641362
 21
-67.10253249415788
 31
0.0
  0
LINE
  5
219
  8
BLATTANSICHT_1_GEOMETRIEAN
  6
VOLLINIE
 62
    18
 10
-26.72067939912073
 20
-60.09149364640277
 30
0.0
 11
-23.9584514941141
 21
-60.09149364640277
 31
0.0
  0
LINE
  5
21A
  8
BLATTANSICHT_1_GEOMETRIEAN
  6
VOLLINIE
 62
    18
 10
-23.9584514941141
 20
-40.09149364640277
 30
0.0
 11
-26.72067939912073
 21
-40.09149364640277
 31
0.0
  0
LINE
  5
21B
  8
BLATTANSICHT_1_GEOMETRIEAN
  6
VOLLINIE
 62
    18
 10
-23.9584514941141
 20
-60.09149364640277
 30
0.0
 11
-22.9486691691141
 21
-60.09149364640277
 31
0.0
  0
LINE
  5
21C
  8
BLATTANSICHT_1_GEOMETRIEAN
  6
VOLLINIE
 62
    18
 10
-23.9584514941141
 20
-40.09149364640277
 30
0.0
 11
-23.9584514941141
 21
-60.09149364640277
 31
0.0
  0
LINE
  5
21D
  8
BLATTANSICHT_1_GEOMETRIEAN
  6
VOLLINIE
 62
    18
 10
-22.9486691691141
 20
-60.09149364640277
 30
0.0
 11
-22.9486691691141
 21
-40.09149364640277
 31
0.0
  0
LINE
  5
21E
  8
BLATTANSICHT_1_GEOMETRIEAN
  6
VOLLINIE
 62
    18
 10
-22.9486691691141
 20
-40.09149364640277
 30
0.0
 11
-23.9584514941141
 21
-40.09149364640277
 31
0.0
  0
LINE
  5
21F
  8
BLATTANSICHT_1_GEOMETRIEAN
  6
VOLLINIE
 62
    18
 10
-26.63672772440758
 20
-40.09149364556897
 30
0.0
 11
-26.73062733204536
 21
-40.09149364556897
 31
0.0
  0
LINE
  5
220
  8
BLATTANSICHT_1_GEOMETRIEAN
  6
VOLLINIE
 62
    18
 10
-26.52734320069051
 20
-40.09149364556898
 30
0.0
 11
-26.63672772440758
 21
-40.09149364556897
 31
0.0
  0
LINE
  5
221
  8
BLATTANSICHT_1_GEOMETRIEAN
  6
VOLLINIE
 62
    18
 10
-26.73062733204536
 20
-40.09149364556897
 30
0.0
 11
-26.80837749497842
 21
-40.09149364556898
 31
0.0
  0
LINE
  5
222
  8
BLATTANSICHT_1_GEOMETRIEAN
  6
VOLLINIE
 62
    18
 10
-26.80837749497842
 20
-40.09149364556898
 30
0.0
 11
-26.86942797439104
 21
-40.09149364556898
 31
0.0
  0
LINE
  5
223
  8
BLATTANSICHT_1_GEOMETRIEAN
  6
VOLLINIE
 62
    18
 10
-26.86942797439104
 20
-40.09149364556898
 30
0.0
 11
-26.91334671532381
 21
-40.09149364556898
 31
0.0
  0
LINE
  5
224
  8
BLATTANSICHT_1_GEOMETRIEAN
  6
VOLLINIE
 62
    18
 10
-26.91334671532381
 20
-40.09149364556898
 30
0.0
 11
-26.93982290433162
 21
-40.09149364556898
 31
0.0
  0
LINE
  5
225
  8
BLATTANSICHT_1_GEOMETRIEAN
  6
VOLLINIE
 62
    18
 10
-26.43205251888881
 20
-40.09149364556897
 30
0.0
 11
-26.52734320069051
 21
-40.09149364556898
 31
0.0
  0
LINE
  5
226
  8
BLATTANSICHT_1_GEOMETRIEAN
  6
VOLLINIE
 62
    18
 10
-26.32826868477313
 20
-40.09149364556897
 30
0.0
 11
-26.43205251888881
 21
-40.09149364556897
 31
0.0
  0
LINE
  5
227
  8
BLATTANSICHT_1_GEOMETRIEAN
  6
VOLLINIE
 62
    18
 10
-26.21643611667085
 20
-40.09149364556897
 30
0.0
 11
-26.32826868477313
 21
-40.09149364556897
 31
0.0
  0
LINE
  5
228
  8
BLATTANSICHT_1_GEOMETRIEAN
  6
VOLLINIE
 62
    18
 10
-26.09703370204808
 20
-40.09149364556897
 30
0.0
 11
-26.21643611667085
 21
-40.09149364556897
 31
0.0
  0
LINE
  5
229
  8
BLATTANSICHT_1_GEOMETRIEAN
  6
VOLLINIE
 62
    18
 10
-25.97057273754109
 20
-40.09149364556897
 30
0.0
 11
-26.09703370204808
 21
-40.09149364556897
 31
0.0
  0
LINE
  5
22A
  8
BLATTANSICHT_1_GEOMETRIEAN
  6
VOLLINIE
 62
    18
 10
-25.83759474840631
 20
-40.09149364556897
 30
0.0
 11
-25.97057273754109
 21
-40.09149364556897
 31
0.0
  0
LINE
  5
22B
  8
BLATTANSICHT_1_GEOMETRIEAN
  6
VOLLINIE
 62
    18
 10
-25.67022227004479
 20
-40.09149364556897
 30
0.0
 11
-25.83759474840631
 21
-40.09149364556897
 31
0.0
  0
LINE
  5
22C
  8
BLATTANSICHT_1_GEOMETRIEAN
  6
VOLLINIE
 62
    18
 10
-25.49531851066163
 20
-40.09149364556897
 30
0.0
 11
-25.67022227004479
 21
-40.09149364556897
 31
0.0
  0
LINE
  5
22D
  8
BLATTANSICHT_1_GEOMETRIEAN
  6
VOLLINIE
 62
    18
 10
-25.31396181008722
 20
-40.09149364556896
 30
0.0
 11
-25.49531851066163
 21
-40.09149364556897
 31
0.0
  0
LINE
  5
22E
  8
BLATTANSICHT_1_GEOMETRIEAN
  6
VOLLINIE
 62
    18
 10
-25.12727029267994
 20
-40.09149364556896
 30
0.0
 11
-25.31396181008722
 21
-40.09149364556896
 31
0.0
  0
LINE
  5
22F
  8
BLATTANSICHT_1_GEOMETRIEAN
  6
VOLLINIE
 62
    18
 10
-24.93639497371765
 20
-40.09149364556896
 30
0.0
 11
-25.12727029267994
 21
-40.09149364556896
 31
0.0
  0
LINE
  5
230
  8
BLATTANSICHT_1_GEOMETRIEAN
  6
VOLLINIE
 62
    18
 10
-24.77498464905206
 20
-40.09149364556896
 30
0.0
 11
-24.93639497371765
 21
-40.09149364556896
 31
0.0
  0
LINE
  5
231
  8
BLATTANSICHT_1_GEOMETRIEAN
  6
VOLLINIE
 62
    18
 10
-24.61217699140156
 20
-40.09149364556896
 30
0.0
 11
-24.77498464905206
 21
-40.09149364556896
 31
0.0
  0
LINE
  5
232
  8
BLATTANSICHT_1_GEOMETRIEAN
  6
VOLLINIE
 62
    18
 10
-28.85138911317663
 20
-40.09149364556896
 30
0.0
 11
-28.91058527912388
 21
-40.09149364556896
 31
0.0
  0
LINE
  5
233
  8
BLATTANSICHT_1_GEOMETRIEAN
  6
VOLLINIE
 62
    18
 10
-28.76534104695877
 20
-40.09149364556896
 30
0.0
 11
-28.85138911317663
 21
-40.09149364556896
 31
0.0
  0
LINE
  5
234
  8
BLATTANSICHT_1_GEOMETRIEAN
  6
VOLLINIE
 62
    18
 10
-28.65296588198432
 20
-40.09149364556896
 30
0.0
 11
-28.76534104695877
 21
-40.09149364556896
 31
0.0
  0
LINE
  5
235
  8
BLATTANSICHT_1_GEOMETRIEAN
  6
VOLLINIE
 62
    18
 10
-28.51494898701647
 20
-40.09149364556897
 30
0.0
 11
-28.65296588198432
 21
-40.09149364556896
 31
0.0
  0
LINE
  5
236
  8
BLATTANSICHT_1_GEOMETRIEAN
  6
VOLLINIE
 62
    18
 10
-28.3521321180484
 20
-40.09149364556897
 30
0.0
 11
-28.51494898701647
 21
-40.09149364556897
 31
0.0
  0
LINE
  5
237
  8
BLATTANSICHT_1_GEOMETRIEAN
  6
VOLLINIE
 62
    18
 10
-28.02842261723499
 20
-40.09149364556897
 30
0.0
 11
-28.14335082236532
 21
-40.09149364556897
 31
0.0
  0
LINE
  5
238
  8
BLATTANSICHT_1_GEOMETRIEAN
  6
VOLLINIE
 62
    18
 10
-28.25132176082643
 20
-40.09149364556897
 30
0.0
 11
-28.3521321180484
 21
-40.09149364556897
 31
0.0
  0
LINE
  5
239
  8
BLATTANSICHT_1_GEOMETRIEAN
  6
VOLLINIE
 62
    18
 10
-28.14335082236532
 20
-40.09149364556897
 30
0.0
 11
-28.25132176082643
 21
-40.09149364556897
 31
0.0
  0
LINE
  5
23A
  8
BLATTANSICHT_1_GEOMETRIEAN
  6
VOLLINIE
 62
    18
 10
-27.64412157722085
 20
-40.09149364556898
 30
0.0
 11
-27.77857275293033
 21
-40.09149364556897
 31
0.0
  0
LINE
  5
23B
  8
BLATTANSICHT_1_GEOMETRIEAN
  6
VOLLINIE
 62
    18
 10
-27.90675355651955
 20
-40.09149364556897
 30
0.0
 11
-28.02842261723499
 21
-40.09149364556897
 31
0.0
  0
LINE
  5
23C
  8
BLATTANSICHT_1_GEOMETRIEAN
  6
VOLLINIE
 62
    18
 10
-27.77857275293033
 20
-40.09149364556897
 30
0.0
 11
-27.90675355651955
 21
-40.09149364556897
 31
0.0
  0
LINE
  5
23D
  8
BLATTANSICHT_1_GEOMETRIEAN
  6
VOLLINIE
 62
    18
 10
-27.3574321592909
 20
-40.09149364556898
 30
0.0
 11
-27.64412157722085
 21
-40.09149364556898
 31
0.0
  0
LINE
  5
23E
  8
BLATTANSICHT_1_GEOMETRIEAN
  6
VOLLINIE
 62
    18
 10
-27.04884368169124
 20
-40.09149364556898
 30
0.0
 11
-27.3574321592909
 21
-40.09149364556898
 31
0.0
  0
LINE
  5
23F
  8
BLATTANSICHT_1_GEOMETRIEAN
  6
VOLLINIE
 62
    18
 10
-26.72067939912073
 20
-40.09149364640277
 30
0.0
 11
-27.04884368169124
 21
-40.09149364556898
 31
0.0
  0
LINE
  5
240
  8
BLATTANSICHT_1_GEOMETRIEAN
  6
VOLLINIE
 62
    18
 10
-26.72067939912073
 20
-60.09149364640277
 30
0.0
 11
-26.72067939912073
 21
-40.09149364640277
 31
0.0
  0
LINE
  5
241
  8
BLATTANSICHT_1_GEOMETRIEAN
  6
VOLLINIE
 62
    18
 10
-27.04884368162654
 20
-60.09149364640277
 30
0.0
 11
-26.72067939912073
 21
-60.09149364640277
 31
0.0
  0
LINE
  5
242
  8
BLATTANSICHT_1_GEOMETRIEAN
  6
VOLLINIE
 62
    18
 10
-27.35743215923241
 20
-60.09149364640277
 30
0.0
 11
-27.04884368162654
 21
-60.09149364640277
 31
0.0
  0
LINE
  5
243
  8
BLATTANSICHT_1_GEOMETRIEAN
  6
VOLLINIE
 62
    18
 10
-27.64412157717101
 20
-60.09149364640277
 30
0.0
 11
-27.35743215923241
 21
-60.09149364640277
 31
0.0
  0
LINE
  5
244
  8
BLATTANSICHT_1_GEOMETRIEAN
  6
VOLLINIE
 62
    18
 10
-27.77857275288725
 20
-60.09149364640277
 30
0.0
 11
-27.64412157717101
 21
-60.09149364640277
 31
0.0
  0
LINE
  5
245
  8
BLATTANSICHT_1_GEOMETRIEAN
  6
VOLLINIE
 62
    18
 10
-27.9067535564837
 20
-60.09149364640277
 30
0.0
 11
-27.77857275288725
 21
-60.09149364640277
 31
0.0
  0
LINE
  5
246
  8
BLATTANSICHT_1_GEOMETRIEAN
  6
VOLLINIE
 62
    18
 10
-28.02842261720685
 20
-60.09149364640277
 30
0.0
 11
-27.9067535564837
 21
-60.09149364640277
 31
0.0
  0
LINE
  5
247
  8
BLATTANSICHT_1_GEOMETRIEAN
  6
VOLLINIE
 62
    18
 10
-28.14335082234623
 20
-60.09149364640277
 30
0.0
 11
-28.02842261720685
 21
-60.09149364640277
 31
0.0
  0
LINE
  5
248
  8
BLATTANSICHT_1_GEOMETRIEAN
  6
VOLLINIE
 62
    18
 10
-28.25132176081674
 20
-60.09149364640277
 30
0.0
 11
-28.14335082234623
 21
-60.09149364640277
 31
0.0
  0
LINE
  5
249
  8
BLATTANSICHT_1_GEOMETRIEAN
  6
VOLLINIE
 62
    18
 10
-28.35213211804843
 20
-60.09149364640277
 30
0.0
 11
-28.25132176081674
 21
-60.09149364640277
 31
0.0
  0
LINE
  5
24A
  8
BLATTANSICHT_1_GEOMETRIEAN
  6
VOLLINIE
 62
    18
 10
-28.51494898703713
 20
-60.09149364640277
 30
0.0
 11
-28.35213211804843
 21
-60.09149364640277
 31
0.0
  0
LINE
  5
24B
  8
BLATTANSICHT_1_GEOMETRIEAN
  6
VOLLINIE
 62
    18
 10
-28.65296588202574
 20
-60.09149364640277
 30
0.0
 11
-28.51494898703713
 21
-60.09149364640277
 31
0.0
  0
LINE
  5
24C
  8
BLATTANSICHT_1_GEOMETRIEAN
  6
VOLLINIE
 62
    18
 10
-28.76534104702092
 20
-60.09149364640277
 30
0.0
 11
-28.65296588202574
 21
-60.09149364640277
 31
0.0
  0
LINE
  5
24D
  8
BLATTANSICHT_1_GEOMETRIEAN
  6
VOLLINIE
 62
    18
 10
-28.85138911325934
 20
-60.09149364640277
 30
0.0
 11
-28.76534104702092
 21
-60.09149364640277
 31
0.0
  0
LINE
  5
24E
  8
BLATTANSICHT_1_GEOMETRIEAN
  6
VOLLINIE
 62
    18
 10
-28.91058527922684
 20
-60.09149364640277
 30
0.0
 11
-28.85138911325934
 21
-60.09149364640277
 31
0.0
  0
LINE
  5
24F
  8
BLATTANSICHT_1_GEOMETRIEAN
  6
VOLLINIE
 62
    18
 10
-28.91058527912388
 20
-40.09149364556896
 30
0.0
 11
-28.93172970536653
 21
-40.09149364556896
 31
0.0
  0
LINE
  5
250
  8
BLATTANSICHT_1_GEOMETRIEAN
  6
VOLLINIE
 62
    18
 10
-28.93172970536653
 20
-40.09149364556896
 30
0.0
 11
-28.94443230852649
 21
-40.09149364556896
 31
0.0
  0
LINE
  5
251
  8
BLATTANSICHT_1_GEOMETRIEAN
  6
VOLLINIE
 62
    18
 10
-28.94443230852649
 20
-40.09149364556896
 30
0.0
 11
-28.94866916911409
 21
-40.09149364640277
 31
0.0
  0
LINE
  5
252
  8
BLATTANSICHT_1_GEOMETRIEAN
  6
VOLLINIE
 62
    18
 10
-28.93172970548083
 20
-60.09149364640277
 30
0.0
 11
-28.91058527922684
 21
-60.09149364640277
 31
0.0
  0
LINE
  5
253
  8
BLATTANSICHT_1_GEOMETRIEAN
  6
VOLLINIE
 62
    18
 10
-28.94443230865171
 20
-60.09149364640277
 30
0.0
 11
-28.93172970548083
 21
-60.09149364640277
 31
0.0
  0
LINE
  5
254
  8
BLATTANSICHT_1_GEOMETRIEAN
  6
VOLLINIE
 62
    18
 10
-28.94866916911409
 20
-60.09149364640277
 30
0.0
 11
-28.94443230865171
 21
-60.09149364640277
 31
0.0
  0
LINE
  5
255
  8
BLATTANSICHT_1_GEOMETRIEAN
  6
VOLLINIE
 62
    18
 10
-28.94866916911409
 20
-40.09149364640277
 30
0.0
 11
-28.94866916911409
 21
-60.09149364640277
 31
0.0
  0
LINE
  5
256
  8
BLATTANSICHT_1_GEOMETRIEAN
  6
VOLLINIE
 62
    18
 10
0.0484851491660904
 20
-37.4067232950658
 30
0.0
 11
0.0384843697844939
 21
-37.19907487674764
 31
0.0
  0
LINE
  5
257
  8
BLATTANSICHT_1_GEOMETRIEAN
  6
VOLLINIE
 62
    18
 10
0.0513308308858932
 20
-37.5914936487109
 30
0.0
 11
0.0484851491660904
 21
-37.4067232950658
 31
0.0
  0
LINE
  5
258
  8
BLATTANSICHT_1_GEOMETRIEAN
  6
VOLLINIE
 62
    18
 10
0.0257358886561073
 20
-37.03788348962301
 30
0.0
 11
-0.0000000005866997
 21
-36.80833650217217
 31
0.0
  0
LINE
  5
259
  8
BLATTANSICHT_1_GEOMETRIEAN
  6
VOLLINIE
 62
    18
 10
0.0384843697844939
 20
-37.19907487674764
 30
0.0
 11
0.0257358886561073
 21
-37.03788348962301
 31
0.0
  0
LINE
  5
25A
  8
BLATTANSICHT_1_GEOMETRIEAN
  6
VOLLINIE
 62
    18
 10
-0.0196763366265468
 20
-36.67114371713071
 30
0.0
 11
-0.0639574851529075
 21
-36.42095172666246
 31
0.0
  0
LINE
  5
25B
  8
BLATTANSICHT_1_GEOMETRIEAN
  6
VOLLINIE
 62
    18
 10
-0.0000000005866997
 20
-36.80833650217217
 30
0.0
 11
-0.0196763366265468
 21
-36.67114371713071
 31
0.0
  0
LINE
  5
25C
  8
BLATTANSICHT_1_GEOMETRIEAN
  6
VOLLINIE
 62
    18
 10
-0.0875792625564926
 20
-36.30789514716383
 30
0.0
 11
-0.153114209009414
 21
-36.03857938806735
 31
0.0
  0
LINE
  5
25D
  8
BLATTANSICHT_1_GEOMETRIEAN
  6
VOLLINIE
 62
    18
 10
-0.0639574851529075
 20
-36.42095172666246
 30
0.0
 11
-0.0875792625564926
 21
-36.30789514716383
 31
0.0
  0
LINE
  5
25E
  8
BLATTANSICHT_1_GEOMETRIEAN
  6
VOLLINIE
 62
    18
 10
-0.177715310077185
 20
-35.94951570597033
 30
0.0
 11
-0.2670883889443939
 21
-35.66285686673057
 31
0.0
  0
LINE
  5
25F
  8
BLATTANSICHT_1_GEOMETRIEAN
  6
VOLLINIE
 62
    18
 10
-0.153114209009414
 20
-36.03857938806735
 30
0.0
 11
-0.177715310077185
 21
-35.94951570597033
 31
0.0
  0
LINE
  5
260
  8
BLATTANSICHT_1_GEOMETRIEAN
  6
VOLLINIE
 62
    18
 10
-0.2897425622864305
 20
-35.59736484952487
 30
0.0
 11
-0.405391970022038
 21
-35.29539306416953
 31
0.0
  0
LINE
  5
261
  8
BLATTANSICHT_1_GEOMETRIEAN
  6
VOLLINIE
 62
    18
 10
-0.2670883889443939
 20
-35.66285686673057
 30
0.0
 11
-0.2897425622864305
 21
-35.59736484952487
 31
0.0
  0
LINE
  5
262
  8
BLATTANSICHT_1_GEOMETRIEAN
  6
VOLLINIE
 62
    18
 10
-0.7525167488228862
 20
-34.59149364384382
 30
0.0
 11
-0.9470548577873642
 21
-34.27730380863979
 31
0.0
  0
LINE
  5
263
  8
BLATTANSICHT_1_GEOMETRIEAN
  6
VOLLINIE
 62
    18
 10
-0.9470548577873642
 20
-34.27730380863979
 30
0.0
 11
-0.9598515022993676
 21
-34.25807223921981
 31
0.0
  0
LINE
  5
264
  8
BLATTANSICHT_1_GEOMETRIEAN
  6
VOLLINIE
 62
    18
 10
-1.392239669185822
 20
-33.68778384517736
 30
0.0
 11
-1.437630335181788
 21
-33.63541874441532
 31
0.0
  0
LINE
  5
265
  8
BLATTANSICHT_1_GEOMETRIEAN
  6
VOLLINIE
 62
    18
 10
-1.188549136244544
 20
-33.93892506201739
 30
0.0
 11
-1.392239669185822
 21
-33.68778384517736
 31
0.0
  0
LINE
  5
266
  8
BLATTANSICHT_1_GEOMETRIEAN
  6
VOLLINIE
 62
    18
 10
-1.64119763072742
 20
-33.41468997062525
 30
0.0
 11
-1.706028495166074
 21
-33.34885294707474
 31
0.0
  0
LINE
  5
267
  8
BLATTANSICHT_1_GEOMETRIEAN
  6
VOLLINIE
 62
    18
 10
-1.437630335181788
 20
-33.63541874441532
 30
0.0
 11
-1.64119763072742
 21
-33.41468997062525
 31
0.0
  0
LINE
  5
268
  8
BLATTANSICHT_1_GEOMETRIEAN
  6
VOLLINIE
 62
    18
 10
-4.485186848463782
 20
-31.77271203019274
 30
0.0
 11
-4.547996995068972
 21
-31.75727412210948
 31
0.0
  0
LINE
  5
269
  8
BLATTANSICHT_1_GEOMETRIEAN
  6
VOLLINIE
 62
    18
 10
-4.846172062214614
 20
-31.69365504829937
 30
0.0
 11
-5.010062384667853
 21
-31.66536360211535
 31
0.0
  0
LINE
  5
26A
  8
BLATTANSICHT_1_GEOMETRIEAN
  6
VOLLINIE
 62
    18
 10
-4.547996995068972
 20
-31.75727412210948
 30
0.0
 11
-4.846172062214614
 21
-31.69365504829937
 31
0.0
  0
LINE
  5
26B
  8
BLATTANSICHT_1_GEOMETRIEAN
  6
VOLLINIE
 62
    18
 10
-5.211339425125753
 20
-31.63697058837116
 30
0.0
 11
-5.477914597131745
 21
-31.60998964394551
 31
0.0
  0
LINE
  5
26C
  8
BLATTANSICHT_1_GEOMETRIEAN
  6
VOLLINIE
 62
    18
 10
-5.010062384667853
 20
-31.66536360211535
 30
0.0
 11
-5.211339425125753
 21
-31.63697058837116
 31
0.0
  0
LINE
  5
26D
  8
BLATTANSICHT_1_GEOMETRIEAN
  6
VOLLINIE
 62
    18
 10
-5.579303732310381
 20
-31.60287367398051
 30
0.0
 11
-5.948669168036587
 21
-31.59149364640277
 31
0.0
  0
LINE
  5
26E
  8
BLATTANSICHT_1_GEOMETRIEAN
  6
VOLLINIE
 62
    18
 10
-5.477914597131745
 20
-31.60998964394551
 30
0.0
 11
-5.579303732310381
 21
-31.60287367398051
 31
0.0
  0
LINE
  5
26F
  8
BLATTANSICHT_1_GEOMETRIEAN
  6
VOLLINIE
 62
    18
 10
-4.129753124435776
 20
-31.87384164383985
 30
0.0
 11
-4.485186848463782
 21
-31.77271203019274
 31
0.0
  0
LINE
  5
270
  8
BLATTANSICHT_1_GEOMETRIEAN
  6
VOLLINIE
 62
    18
 10
-4.094567215072431
 20
-31.88515454501712
 30
0.0
 11
-4.129753124435776
 21
-31.87384164383985
 31
0.0
  0
LINE
  5
271
  8
BLATTANSICHT_1_GEOMETRIEAN
  6
VOLLINIE
 62
    18
 10
-3.781219171991131
 20
-31.99666026997666
 30
0.0
 11
-4.094567215072431
 21
-31.88515454501712
 31
0.0
  0
LINE
  5
272
  8
BLATTANSICHT_1_GEOMETRIEAN
  6
VOLLINIE
 62
    18
 10
-3.652568590011488
 20
-32.04821644551809
 30
0.0
 11
-3.781219171991131
 21
-31.99666026997666
 31
0.0
  0
LINE
  5
273
  8
BLATTANSICHT_1_GEOMETRIEAN
  6
VOLLINIE
 62
    18
 10
-3.440907099793341
 20
-32.14070201548567
 30
0.0
 11
-3.652568590011488
 21
-32.04821644551809
 31
0.0
  0
LINE
  5
274
  8
BLATTANSICHT_1_GEOMETRIEAN
  6
VOLLINIE
 62
    18
 10
-3.294937035188794
 20
-32.210257194067
 30
0.0
 11
-3.440907099793341
 21
-32.14070201548567
 31
0.0
  0
LINE
  5
275
  8
BLATTANSICHT_1_GEOMETRIEAN
  6
VOLLINIE
 62
    18
 10
-3.110107828097989
 20
-32.30542048068809
 30
0.0
 11
-3.294937035188794
 21
-32.210257194067
 31
0.0
  0
LINE
  5
276
  8
BLATTANSICHT_1_GEOMETRIEAN
  6
VOLLINIE
 62
    18
 10
-2.948669169245715
 20
-32.39534122420037
 30
0.0
 11
-3.110107828097989
 21
-32.30542048068809
 31
0.0
  0
LINE
  5
277
  8
BLATTANSICHT_1_GEOMETRIEAN
  6
VOLLINIE
 62
    18
 10
-2.790076191849914
 20
-32.49019083202513
 30
0.0
 11
-2.948669169245715
 21
-32.39534122420037
 31
0.0
  0
LINE
  5
278
  8
BLATTANSICHT_1_GEOMETRIEAN
  6
VOLLINIE
 62
    18
 10
-2.615247764405547
 20
-32.6026759776538
 30
0.0
 11
-2.790076191849914
 21
-32.49019083202513
 31
0.0
  0
LINE
  5
279
  8
BLATTANSICHT_1_GEOMETRIEAN
  6
VOLLINIE
 62
    18
 10
-2.482026180664546
 20
-32.69431217226548
 30
0.0
 11
-2.615247764405547
 21
-32.6026759776538
 31
0.0
  0
LINE
  5
27A
  8
BLATTANSICHT_1_GEOMETRIEAN
  6
VOLLINIE
 62
    18
 10
-2.296100595786037
 20
-32.83137360485167
 30
0.0
 11
-2.482026180664546
 21
-32.69431217226548
 31
0.0
  0
LINE
  5
27B
  8
BLATTANSICHT_1_GEOMETRIEAN
  6
VOLLINIE
 62
    18
 10
-0.4232360614443714
 20
-35.25277840664675
 30
0.0
 11
-0.567432718642463
 21
-34.93776150956741
 31
0.0
  0
LINE
  5
27C
  8
BLATTANSICHT_1_GEOMETRIEAN
  6
VOLLINIE
 62
    18
 10
-0.405391970022038
 20
-35.29539306416953
 30
0.0
 11
-0.4232360614443714
 21
-35.25277840664675
 31
0.0
  0
LINE
  5
27D
  8
BLATTANSICHT_1_GEOMETRIEAN
  6
VOLLINIE
 62
    18
 10
-0.5776894209837168
 20
-34.9170635117436
 30
0.0
 11
-0.7525167488228862
 21
-34.59149364384382
 31
0.0
  0
LINE
  5
27E
  8
BLATTANSICHT_1_GEOMETRIEAN
  6
VOLLINIE
 62
    18
 10
-0.567432718642463
 20
-34.93776150956741
 30
0.0
 11
-0.5776894209837168
 21
-34.9170635117436
 31
0.0
  0
LINE
  5
27F
  8
BLATTANSICHT_1_GEOMETRIEAN
  6
VOLLINIE
 62
    18
 10
-1.906495307234722
 20
-33.15744014307886
 30
0.0
 11
-1.992594285854174
 21
-33.08045479594271
 31
0.0
  0
LINE
  5
280
  8
BLATTANSICHT_1_GEOMETRIEAN
  6
VOLLINIE
 62
    18
 10
-1.706028495166074
 20
-33.34885294707474
 30
0.0
 11
-1.906495307234722
 21
-33.15744014307886
 31
0.0
  0
LINE
  5
281
  8
BLATTANSICHT_1_GEOMETRIEAN
  6
VOLLINIE
 62
    18
 10
-2.187126333749422
 20
-32.91701019924879
 30
0.0
 11
-2.296100595786037
 21
-32.83137360485167
 31
0.0
  0
LINE
  5
282
  8
BLATTANSICHT_1_GEOMETRIEAN
  6
VOLLINIE
 62
    18
 10
-1.992594285854174
 20
-33.08045479594271
 30
0.0
 11
-2.187126333749422
 21
-32.91701019924879
 31
0.0
  0
LINE
  5
283
  8
BLATTANSICHT_1_GEOMETRIEAN
  6
VOLLINIE
 62
    18
 10
-1.160565805432635
 20
-33.97568582812728
 30
0.0
 11
-1.188549136244544
 21
-33.93892506201739
 31
0.0
  0
LINE
  5
284
  8
BLATTANSICHT_1_GEOMETRIEAN
  6
VOLLINIE
 62
    18
 10
-0.9598515022993676
 20
-34.25807223921981
 30
0.0
 11
-1.160565805432635
 21
-33.97568582812728
 31
0.0
  0
LINE
  5
285
  8
BLATTANSICHT_1_GEOMETRIEAN
  6
VOLLINIE
 62
    18
 10
0.0384843697844939
 20
-37.19907487674764
 30
0.0
 11
0.0513308308858932
 21
-37.5914936487109
 31
0.0
  0
LINE
  5
286
  8
BLATTANSICHT_1_GEOMETRIEAN
  6
VOLLINIE
 62
    18
 10
-0.0000000005866997
 20
-36.80833650217217
 30
0.0
 11
0.0384843697844939
 21
-37.19907487674764
 31
0.0
  0
LINE
  5
287
  8
BLATTANSICHT_1_GEOMETRIEAN
  6
VOLLINIE
 62
    18
 10
-0.0639574851529075
 20
-36.42095172666246
 30
0.0
 11
-0.0000000005866997
 21
-36.80833650217217
 31
0.0
  0
LINE
  5
288
  8
BLATTANSICHT_1_GEOMETRIEAN
  6
VOLLINIE
 62
    18
 10
-0.153114209009414
 20
-36.03857938806735
 30
0.0
 11
-0.0639574851529075
 21
-36.42095172666246
 31
0.0
  0
LINE
  5
289
  8
BLATTANSICHT_1_GEOMETRIEAN
  6
VOLLINIE
 62
    18
 10
-0.2670883889443939
 20
-35.66285686673057
 30
0.0
 11
-0.153114209009414
 21
-36.03857938806735
 31
0.0
  0
LINE
  5
28A
  8
BLATTANSICHT_1_GEOMETRIEAN
  6
VOLLINIE
 62
    18
 10
-0.405391970022038
 20
-35.29539306416953
 30
0.0
 11
-0.2670883889443939
 21
-35.66285686673057
 31
0.0
  0
LINE
  5
28B
  8
BLATTANSICHT_1_GEOMETRIEAN
  6
VOLLINIE
 62
    18
 10
-0.9598515022993676
 20
-34.25807223921981
 30
0.0
 11
-0.7525167488228862
 21
-34.59149364384382
 31
0.0
  0
LINE
  5
28C
  8
BLATTANSICHT_1_GEOMETRIEAN
  6
VOLLINIE
 62
    18
 10
-0.567432718642463
 20
-34.93776150956741
 30
0.0
 11
-0.405391970022038
 21
-35.29539306416953
 31
0.0
  0
LINE
  5
28D
  8
BLATTANSICHT_1_GEOMETRIEAN
  6
VOLLINIE
 62
    18
 10
-0.7525167488228862
 20
-34.59149364384382
 30
0.0
 11
-0.567432718642463
 21
-34.93776150956741
 31
0.0
  0
LINE
  5
28E
  8
BLATTANSICHT_1_GEOMETRIEAN
  6
VOLLINIE
 62
    18
 10
-1.437630335181788
 20
-33.63541874441532
 30
0.0
 11
-1.188549136244544
 21
-33.93892506201739
 31
0.0
  0
LINE
  5
28F
  8
BLATTANSICHT_1_GEOMETRIEAN
  6
VOLLINIE
 62
    18
 10
-1.706028495166074
 20
-33.34885294707474
 30
0.0
 11
-1.437630335181788
 21
-33.63541874441532
 31
0.0
  0
LINE
  5
290
  8
BLATTANSICHT_1_GEOMETRIEAN
  6
VOLLINIE
 62
    18
 10
-1.188549136244544
 20
-33.93892506201739
 30
0.0
 11
-0.9598515022993676
 21
-34.25807223921981
 31
0.0
  0
LINE
  5
291
  8
BLATTANSICHT_1_GEOMETRIEAN
  6
VOLLINIE
 62
    18
 10
-4.547996995068972
 20
-31.75727412210948
 30
0.0
 11
-4.094567215072431
 21
-31.88515454501712
 31
0.0
  0
LINE
  5
292
  8
BLATTANSICHT_1_GEOMETRIEAN
  6
VOLLINIE
 62
    18
 10
-5.010062384667853
 20
-31.66536360211535
 30
0.0
 11
-4.547996995068972
 21
-31.75727412210948
 31
0.0
  0
LINE
  5
293
  8
BLATTANSICHT_1_GEOMETRIEAN
  6
VOLLINIE
 62
    18
 10
-5.477914597131745
 20
-31.60998964394551
 30
0.0
 11
-5.010062384667853
 21
-31.66536360211535
 31
0.0
  0
LINE
  5
294
  8
BLATTANSICHT_1_GEOMETRIEAN
  6
VOLLINIE
 62
    18
 10
-5.948669168036587
 20
-31.59149364640277
 30
0.0
 11
-5.477914597131745
 21
-31.60998964394551
 31
0.0
  0
LINE
  5
295
  8
BLATTANSICHT_1_GEOMETRIEAN
  6
VOLLINIE
 62
    18
 10
-4.094567215072431
 20
-31.88515454501712
 30
0.0
 11
-3.652568590011488
 21
-32.04821644551809
 31
0.0
  0
LINE
  5
296
  8
BLATTANSICHT_1_GEOMETRIEAN
  6
VOLLINIE
 62
    18
 10
-3.652568590011488
 20
-32.04821644551809
 30
0.0
 11
-3.294937035188794
 21
-32.210257194067
 31
0.0
  0
LINE
  5
297
  8
BLATTANSICHT_1_GEOMETRIEAN
  6
VOLLINIE
 62
    18
 10
-3.294937035188794
 20
-32.210257194067
 30
0.0
 11
-2.948669169245715
 21
-32.39534122420037
 31
0.0
  0
LINE
  5
298
  8
BLATTANSICHT_1_GEOMETRIEAN
  6
VOLLINIE
 62
    18
 10
-2.948669169245715
 20
-32.39534122420037
 30
0.0
 11
-2.615247764405547
 21
-32.6026759776538
 31
0.0
  0
LINE
  5
299
  8
BLATTANSICHT_1_GEOMETRIEAN
  6
VOLLINIE
 62
    18
 10
-2.615247764405547
 20
-32.6026759776538
 30
0.0
 11
-2.296100595786037
 21
-32.83137360485167
 31
0.0
  0
LINE
  5
29A
  8
BLATTANSICHT_1_GEOMETRIEAN
  6
VOLLINIE
 62
    18
 10
-1.992594285854174
 20
-33.08045479594271
 30
0.0
 11
-1.706028495166074
 21
-33.34885294707474
 31
0.0
  0
LINE
  5
29B
  8
BLATTANSICHT_1_GEOMETRIEAN
  6
VOLLINIE
 62
    18
 10
-2.296100595786037
 20
-32.83137360485167
 30
0.0
 11
-1.992594285854174
 21
-33.08045479594271
 31
0.0
  0
LINE
  5
29C
  8
BLATTANSICHT_1_GEOMETRIEAN
  6
VOLLINIE
 62
    18
 10
-0.7525167484835201
 20
0.0
 30
0.0
 11
-0.5674327182255592
 21
0.0
 31
0.0
  0
LINE
  5
29D
  8
BLATTANSICHT_1_GEOMETRIEAN
  6
VOLLINIE
 62
    18
 10
-0.5674327182255592
 20
0.0
 30
0.0
 11
-0.4053919695287694
 21
0.0
 31
0.0
  0
LINE
  5
29E
  8
BLATTANSICHT_1_GEOMETRIEAN
  6
VOLLINIE
 62
    18
 10
-0.9598515020382838
 20
0.0
 30
0.0
 11
-0.7525167484835201
 21
0.0
 31
0.0
  0
LINE
  5
29F
  8
BLATTANSICHT_1_GEOMETRIEAN
  6
VOLLINIE
 62
    18
 10
-11.9486691691141
 20
1.999999999987295
 30
0.0
 11
-11.9486691691141
 21
-0.0000000000127011
 31
0.0
  0
LINE
  5
2A0
  8
BLATTANSICHT_1_GEOMETRIEAN
  6
VOLLINIE
 62
    18
 10
-11.93582270971957
 20
2.000000000833804
 30
0.0
 11
-11.9486691691141
 21
1.999999999987295
 31
0.0
  0
LINE
  5
2A1
  8
BLATTANSICHT_1_GEOMETRIEAN
  6
VOLLINIE
 62
    18
 10
-11.89733833947195
 20
2.000000000833804
 30
0.0
 11
-11.93582270971957
 21
2.000000000833804
 31
0.0
  0
LINE
  5
2A2
  8
BLATTANSICHT_1_GEOMETRIEAN
  6
VOLLINIE
 62
    18
 10
-11.83338085529814
 20
2.000000000833804
 30
0.0
 11
-11.89733833947195
 21
2.000000000833804
 31
0.0
  0
LINE
  5
2A3
  8
BLATTANSICHT_1_GEOMETRIEAN
  6
VOLLINIE
 62
    18
 10
-11.9486691691141
 20
-0.0000000000127011
 30
0.0
 11
-11.93582270877374
 21
0.0
 31
0.0
  0
LINE
  5
2A4
  8
BLATTANSICHT_1_GEOMETRIEAN
  6
VOLLINIE
 62
    18
 10
-11.93582270877374
 20
0.0
 30
0.0
 11
-11.89733833853822
 21
0.0
 31
0.0
  0
LINE
  5
2A5
  8
BLATTANSICHT_1_GEOMETRIEAN
  6
VOLLINIE
 62
    18
 10
-11.89733833853822
 20
0.0
 30
0.0
 11
-11.83338085438444
 21
0.0
 31
0.0
  0
LINE
  5
2A6
  8
BLATTANSICHT_1_GEOMETRIEAN
  6
VOLLINIE
 62
    18
 10
-11.74422413097785
 20
2.000000000833804
 30
0.0
 11
-11.83338085529814
 21
2.000000000833804
 31
0.0
  0
LINE
  5
2A7
  8
BLATTANSICHT_1_GEOMETRIEAN
  6
VOLLINIE
 62
    18
 10
-11.63024995029432
 20
2.000000000833804
 30
0.0
 11
-11.74422413097785
 21
2.000000000833804
 31
0.0
  0
LINE
  5
2A8
  8
BLATTANSICHT_1_GEOMETRIEAN
  6
VOLLINIE
 62
    18
 10
-11.49194636819217
 20
2.000000000833804
 30
0.0
 11
-11.63024995029432
 21
2.000000000833804
 31
0.0
  0
LINE
  5
2A9
  8
BLATTANSICHT_1_GEOMETRIEAN
  6
VOLLINIE
 62
    18
 10
-11.83338085438444
 20
0.0
 30
0.0
 11
-11.74422413009133
 21
0.0
 31
0.0
  0
LINE
  5
2AA
  8
BLATTANSICHT_1_GEOMETRIEAN
  6
VOLLINIE
 62
    18
 10
-11.63024994944221
 20
0.0
 30
0.0
 11
-11.49194636738141
 21
0.0
 31
0.0
  0
LINE
  5
2AB
  8
BLATTANSICHT_1_GEOMETRIEAN
  6
VOLLINIE
 62
    18
 10
-11.74422413009133
 20
0.0
 30
0.0
 11
-11.63024994944221
 21
0.0
 31
0.0
  0
LINE
  5
2AC
  8
BLATTANSICHT_1_GEOMETRIEAN
  6
VOLLINIE
 62
    18
 10
-10.93748683406866
 20
2.000000000833804
 30
0.0
 11
-11.14482158821731
 21
2.000000000833804
 31
0.0
  0
LINE
  5
2AD
  8
BLATTANSICHT_1_GEOMETRIEAN
  6
VOLLINIE
 62
    18
 10
-11.32990561901481
 20
2.000000000833804
 30
0.0
 11
-11.49194636819217
 21
2.000000000833804
 31
0.0
  0
LINE
  5
2AE
  8
BLATTANSICHT_1_GEOMETRIEAN
  6
VOLLINIE
 62
    18
 10
-11.14482158821731
 20
2.000000000833804
 30
0.0
 11
-11.32990561901481
 21
2.000000000833804
 31
0.0
  0
LINE
  5
2AF
  8
BLATTANSICHT_1_GEOMETRIEAN
  6
VOLLINIE
 62
    18
 10
-10.45970800742755
 20
2.000000000833804
 30
0.0
 11
-10.70878920296941
 21
2.000000000833804
 31
0.0
  0
LINE
  5
2B0
  8
BLATTANSICHT_1_GEOMETRIEAN
  6
VOLLINIE
 62
    18
 10
-10.19130985134505
 20
2.000000000833804
 30
0.0
 11
-10.45970800742755
 21
2.000000000833804
 31
0.0
  0
LINE
  5
2B1
  8
BLATTANSICHT_1_GEOMETRIEAN
  6
VOLLINIE
 62
    18
 10
-10.70878920296941
 20
2.000000000833804
 30
0.0
 11
-10.93748683406866
 21
2.000000000833804
 31
0.0
  0
LINE
  5
2B2
  8
BLATTANSICHT_1_GEOMETRIEAN
  6
VOLLINIE
 62
    18
 10
-7.247306854766042
 20
2.000000000833804
 30
0.0
 11
-7.752903966161005
 21
2.000000000833804
 31
0.0
  0
LINE
  5
2B3
  8
BLATTANSICHT_1_GEOMETRIEAN
  6
VOLLINIE
 62
    18
 10
-6.731826326529847
 20
2.000000000833804
 30
0.0
 11
-7.247306854766042
 21
2.000000000833804
 31
0.0
  0
LINE
  5
2B4
  8
BLATTANSICHT_1_GEOMETRIEAN
  6
VOLLINIE
 62
    18
 10
-6.210385499496899
 20
2.000000000833804
 30
0.0
 11
-6.731826326529847
 21
2.000000000833804
 31
0.0
  0
LINE
  5
2B5
  8
BLATTANSICHT_1_GEOMETRIEAN
  6
VOLLINIE
 62
    18
 10
-5.686952853184084
 20
2.000000000833804
 30
0.0
 11
-6.210385499496899
 21
2.000000000833804
 31
0.0
  0
LINE
  5
2B6
  8
BLATTANSICHT_1_GEOMETRIEAN
  6
VOLLINIE
 62
    18
 10
-5.165512026055596
 20
2.000000000833804
 30
0.0
 11
-5.686952853184084
 21
2.000000000833804
 31
0.0
  0
LINE
  5
2B7
  8
BLATTANSICHT_1_GEOMETRIEAN
  6
VOLLINIE
 62
    18
 10
-4.650031497629053
 20
2.000000000833804
 30
0.0
 11
-5.165512026055596
 21
2.000000000833804
 31
0.0
  0
LINE
  5
2B8
  8
BLATTANSICHT_1_GEOMETRIEAN
  6
VOLLINIE
 62
    18
 10
-4.144434385950389
 20
2.000000000833804
 30
0.0
 11
-4.650031497629053
 21
2.000000000833804
 31
0.0
  0
LINE
  5
2B9
  8
BLATTANSICHT_1_GEOMETRIEAN
  6
VOLLINIE
 62
    18
 10
-3.652568590296914
 20
2.000000000833804
 30
0.0
 11
-4.144434385950389
 21
2.000000000833804
 31
0.0
  0
LINE
  5
2BA
  8
BLATTANSICHT_1_GEOMETRIEAN
  6
VOLLINIE
 62
    18
 10
-7.752903966161005
 20
2.000000000833804
 30
0.0
 11
-8.244769761439573
 21
2.000000000833804
 31
0.0
  0
LINE
  5
2BB
  8
BLATTANSICHT_1_GEOMETRIEAN
  6
VOLLINIE
 62
    18
 10
-3.29493703550921
 20
2.000000000833804
 30
0.0
 11
-3.652568590296914
 21
2.000000000833804
 31
0.0
  0
LINE
  5
2BC
  8
BLATTANSICHT_1_GEOMETRIEAN
  6
VOLLINIE
 62
    18
 10
-2.94866916959724
 20
2.000000000833804
 30
0.0
 11
-3.29493703550921
 21
2.000000000833804
 31
0.0
  0
LINE
  5
2BD
  8
BLATTANSICHT_1_GEOMETRIEAN
  6
VOLLINIE
 62
    18
 10
-2.615247764783806
 20
2.000000000833804
 30
0.0
 11
-2.94866916959724
 21
2.000000000833804
 31
0.0
  0
LINE
  5
2BE
  8
BLATTANSICHT_1_GEOMETRIEAN
  6
VOLLINIE
 62
    18
 10
-0.5674327189904581
 20
2.000000000833804
 30
0.0
 11
-0.7525167491969152
 21
2.000000000833804
 31
0.0
  0
LINE
  5
2BF
  8
BLATTANSICHT_1_GEOMETRIEAN
  6
VOLLINIE
 62
    18
 10
-0.4053919703395549
 20
2.000000000833804
 30
0.0
 11
-0.5674327189904581
 21
2.000000000833804
 31
0.0
  0
LINE
  5
2C0
  8
BLATTANSICHT_1_GEOMETRIEAN
  6
VOLLINIE
 62
    18
 10
-0.7525167491969152
 20
2.000000000833804
 30
0.0
 11
-0.9598515026949863
 21
2.000000000833804
 31
0.0
  0
LINE
  5
2C1
  8
BLATTANSICHT_1_GEOMETRIEAN
  6
VOLLINIE
 62
    18
 10
-0.2670883892240669
 20
2.000000000833804
 30
0.0
 11
-0.4053919703395549
 21
2.000000000833804
 31
0.0
  0
LINE
  5
2C2
  8
BLATTANSICHT_1_GEOMETRIEAN
  6
VOLLINIE
 62
    18
 10
-0.1531142092480396
 20
2.000000000833804
 30
0.0
 11
-0.2670883892240669
 21
2.000000000833804
 31
0.0
  0
LINE
  5
2C3
  8
BLATTANSICHT_1_GEOMETRIEAN
  6
VOLLINIE
 62
    18
 10
-0.0639574853474288
 20
2.000000000833804
 30
0.0
 11
-0.1531142092480396
 21
2.000000000833804
 31
0.0
  0
LINE
  5
2C4
  8
BLATTANSICHT_1_GEOMETRIEAN
  6
VOLLINIE
 62
    18
 10
-0.0000000009337473
 20
2.000000000833804
 30
0.0
 11
-0.0639574853474288
 21
2.000000000833804
 31
0.0
  0
LINE
  5
2C5
  8
BLATTANSICHT_1_GEOMETRIEAN
  6
VOLLINIE
 62
    18
 10
0.0384843694867957
 20
2.000000000833804
 30
0.0
 11
-0.0000000009337473
 21
2.000000000833804
 31
0.0
  0
LINE
  5
2C6
  8
BLATTANSICHT_1_GEOMETRIEAN
  6
VOLLINIE
 62
    18
 10
0.0513308308858932
 20
1.999999999987295
 30
0.0
 11
0.0384843694867957
 21
2.000000000833804
 31
0.0
  0
LINE
  5
2C7
  8
BLATTANSICHT_1_GEOMETRIEAN
  6
VOLLINIE
 62
    18
 10
-0.4053919695287694
 20
0.0
 30
0.0
 11
-0.2670883883719407
 21
0.0
 31
0.0
  0
LINE
  5
2C8
  8
BLATTANSICHT_1_GEOMETRIEAN
  6
VOLLINIE
 62
    18
 10
-0.2670883883719407
 20
0.0
 30
0.0
 11
-0.1531142083614985
 21
0.0
 31
0.0
  0
LINE
  5
2C9
  8
BLATTANSICHT_1_GEOMETRIEAN
  6
VOLLINIE
 62
    18
 10
-0.1531142083614985
 20
0.0
 30
0.0
 11
-0.0639574844337033
 21
0.0
 31
0.0
  0
LINE
  5
2CA
  8
BLATTANSICHT_1_GEOMETRIEAN
  6
VOLLINIE
 62
    18
 10
-0.0639574844337033
 20
0.0
 30
0.0
 11
0.0
 21
0.0
 31
0.0
  0
LINE
  5
2CB
  8
BLATTANSICHT_1_GEOMETRIEAN
  6
VOLLINIE
 62
    18
 10
0.0
 20
0.0
 30
0.0
 11
0.038484370432635
 21
0.0
 31
0.0
  0
LINE
  5
2CC
  8
BLATTANSICHT_1_GEOMETRIEAN
  6
VOLLINIE
 62
    18
 10
0.038484370432635
 20
0.0
 30
0.0
 11
0.0513308308858932
 21
-0.0000000000127011
 31
0.0
  0
LINE
  5
2CD
  8
BLATTANSICHT_1_GEOMETRIEAN
  6
VOLLINIE
 62
    18
 10
0.0513308308858932
 20
-0.0000000000127011
 30
0.0
 11
0.0513308308858932
 21
1.999999999987295
 31
0.0
  0
LINE
  5
2CE
  8
BLATTANSICHT_1_GEOMETRIEAN
  6
VOLLINIE
 62
    18
 10
-1.188549136052967
 20
0.0
 30
0.0
 11
-0.9598515020382838
 21
0.0
 31
0.0
  0
LINE
  5
2CF
  8
BLATTANSICHT_1_GEOMETRIEAN
  6
VOLLINIE
 62
    18
 10
-1.437630335058025
 20
0.0
 30
0.0
 11
-1.188549136052967
 21
0.0
 31
0.0
  0
LINE
  5
2D0
  8
BLATTANSICHT_1_GEOMETRIEAN
  6
VOLLINIE
 62
    18
 10
-1.706028495108073
 20
0.0
 30
0.0
 11
-1.437630335058025
 21
0.0
 31
0.0
  0
LINE
  5
2D1
  8
BLATTANSICHT_1_GEOMETRIEAN
  6
VOLLINIE
 62
    18
 10
-0.9598515026949863
 20
2.000000000833804
 30
0.0
 11
-1.18854913665239
 21
2.000000000833804
 31
0.0
  0
LINE
  5
2D2
  8
BLATTANSICHT_1_GEOMETRIEAN
  6
VOLLINIE
 62
    18
 10
-1.18854913665239
 20
2.000000000833804
 30
0.0
 11
-1.437630335596695
 21
2.000000000833804
 31
0.0
  0
LINE
  5
2D3
  8
BLATTANSICHT_1_GEOMETRIEAN
  6
VOLLINIE
 62
    18
 10
-1.437630335596695
 20
2.000000000833804
 30
0.0
 11
-1.706028495583023
 21
2.000000000833804
 31
0.0
  0
LINE
  5
2D4
  8
BLATTANSICHT_1_GEOMETRIEAN
  6
VOLLINIE
 62
    18
 10
-1.99259428584797
 20
0.0
 30
0.0
 11
-1.706028495108073
 21
0.0
 31
0.0
  0
LINE
  5
2D5
  8
BLATTANSICHT_1_GEOMETRIEAN
  6
VOLLINIE
 62
    18
 10
-2.296100595827581
 20
0.0
 30
0.0
 11
-1.99259428584797
 21
0.0
 31
0.0
  0
LINE
  5
2D6
  8
BLATTANSICHT_1_GEOMETRIEAN
  6
VOLLINIE
 62
    18
 10
-2.615247764490597
 20
0.0
 30
0.0
 11
-2.296100595827581
 21
0.0
 31
0.0
  0
LINE
  5
2D7
  8
BLATTANSICHT_1_GEOMETRIEAN
  6
VOLLINIE
 62
    18
 10
-1.706028495583023
 20
2.000000000833804
 30
0.0
 11
-1.992594286263272
 21
2.000000000833804
 31
0.0
  0
LINE
  5
2D8
  8
BLATTANSICHT_1_GEOMETRIEAN
  6
VOLLINIE
 62
    18
 10
-1.992594286263272
 20
2.000000000833804
 30
0.0
 11
-2.29610059618213
 21
2.000000000833804
 31
0.0
  0
LINE
  5
2D9
  8
BLATTANSICHT_1_GEOMETRIEAN
  6
VOLLINIE
 62
    18
 10
-2.29610059618213
 20
2.000000000833804
 30
0.0
 11
-2.615247764783806
 21
2.000000000833804
 31
0.0
  0
LINE
  5
2DA
  8
BLATTANSICHT_1_GEOMETRIEAN
  6
VOLLINIE
 62
    18
 10
-2.948669169356675
 20
0.0
 30
0.0
 11
-2.615247764490597
 21
0.0
 31
0.0
  0
LINE
  5
2DB
  8
BLATTANSICHT_1_GEOMETRIEAN
  6
VOLLINIE
 62
    18
 10
-3.294937035320159
 20
0.0
 30
0.0
 11
-2.948669169356675
 21
0.0
 31
0.0
  0
LINE
  5
2DC
  8
BLATTANSICHT_1_GEOMETRIEAN
  6
VOLLINIE
 62
    18
 10
-3.652568590157799
 20
0.0
 30
0.0
 11
-3.294937035320159
 21
0.0
 31
0.0
  0
LINE
  5
2DD
  8
BLATTANSICHT_1_GEOMETRIEAN
  6
VOLLINIE
 62
    18
 10
-5.165512025975779
 20
0.0
 30
0.0
 11
-4.650031497535937
 21
0.0
 31
0.0
  0
LINE
  5
2DE
  8
BLATTANSICHT_1_GEOMETRIEAN
  6
VOLLINIE
 62
    18
 10
-4.650031497535937
 20
0.0
 30
0.0
 11
-4.144434385837466
 21
0.0
 31
0.0
  0
LINE
  5
2DF
  8
BLATTANSICHT_1_GEOMETRIEAN
  6
VOLLINIE
 62
    18
 10
-5.686952853110945
 20
0.0
 30
0.0
 11
-5.165512025975779
 21
0.0
 31
0.0
  0
LINE
  5
2E0
  8
BLATTANSICHT_1_GEOMETRIEAN
  6
VOLLINIE
 62
    18
 10
-7.752903966048094
 20
0.0
 30
0.0
 11
-7.247306854672948
 21
0.0
 31
0.0
  0
LINE
  5
2E1
  8
BLATTANSICHT_1_GEOMETRIEAN
  6
VOLLINIE
 62
    18
 10
-7.247306854672948
 20
0.0
 30
0.0
 11
-6.731826326450041
 21
0.0
 31
0.0
  0
LINE
  5
2E2
  8
BLATTANSICHT_1_GEOMETRIEAN
  6
VOLLINIE
 62
    18
 10
-8.24476976130049
 20
0.0
 30
0.0
 11
-7.752903966048094
 21
0.0
 31
0.0
  0
LINE
  5
2E3
  8
BLATTANSICHT_1_GEOMETRIEAN
  6
VOLLINIE
 62
    18
 10
-4.144434385837466
 20
0.0
 30
0.0
 11
-3.652568590157799
 21
0.0
 31
0.0
  0
LINE
  5
2E4
  8
BLATTANSICHT_1_GEOMETRIEAN
  6
VOLLINIE
 62
    18
 10
-6.21038549942376
 20
0.0
 30
0.0
 11
-5.686952853110945
 21
0.0
 31
0.0
  0
LINE
  5
2E5
  8
BLATTANSICHT_1_GEOMETRIEAN
  6
VOLLINIE
 62
    18
 10
-6.731826326450041
 20
0.0
 30
0.0
 11
-6.21038549942376
 21
0.0
 31
0.0
  0
LINE
  5
2E6
  8
BLATTANSICHT_1_GEOMETRIEAN
  6
VOLLINIE
 62
    18
 10
-8.602401309233105
 20
0.0
 30
0.0
 11
-8.24476976130049
 21
0.0
 31
0.0
  0
LINE
  5
2E7
  8
BLATTANSICHT_1_GEOMETRIEAN
  6
VOLLINIE
 62
    18
 10
-8.94866916868496
 20
0.0
 30
0.0
 11
-8.602401309233105
 21
0.0
 31
0.0
  0
LINE
  5
2E8
  8
BLATTANSICHT_1_GEOMETRIEAN
  6
VOLLINIE
 62
    18
 10
-9.28209056751553
 20
0.0
 30
0.0
 11
-8.94866916868496
 21
0.0
 31
0.0
  0
LINE
  5
2E9
  8
BLATTANSICHT_1_GEOMETRIEAN
  6
VOLLINIE
 62
    18
 10
-8.244769761439573
 20
2.000000000833804
 30
0.0
 11
-8.602401309422133
 21
2.000000000833804
 31
0.0
  0
LINE
  5
2EA
  8
BLATTANSICHT_1_GEOMETRIEAN
  6
VOLLINIE
 62
    18
 10
-8.602401309422133
 20
2.000000000833804
 30
0.0
 11
-8.948669168925491
 21
2.000000000833804
 31
0.0
  0
LINE
  5
2EB
  8
BLATTANSICHT_1_GEOMETRIEAN
  6
VOLLINIE
 62
    18
 10
-8.948669168925491
 20
2.000000000833804
 30
0.0
 11
-9.282090567808694
 21
2.000000000833804
 31
0.0
  0
LINE
  5
2EC
  8
BLATTANSICHT_1_GEOMETRIEAN
  6
VOLLINIE
 62
    18
 10
-9.60123774134116
 20
0.0
 30
0.0
 11
-9.28209056751553
 21
0.0
 31
0.0
  0
LINE
  5
2ED
  8
BLATTANSICHT_1_GEOMETRIEAN
  6
VOLLINIE
 62
    18
 10
-9.904744055998362
 20
0.0
 30
0.0
 11
-9.60123774134116
 21
0.0
 31
0.0
  0
LINE
  5
2EE
  8
BLATTANSICHT_1_GEOMETRIEAN
  6
VOLLINIE
 62
    18
 10
-10.19130985087013
 20
0.0
 30
0.0
 11
-9.904744055998362
 21
0.0
 31
0.0
  0
LINE
  5
2EF
  8
BLATTANSICHT_1_GEOMETRIEAN
  6
VOLLINIE
 62
    18
 10
-9.282090567808694
 20
2.000000000833804
 30
0.0
 11
-9.601237741695664
 21
2.000000000833804
 31
0.0
  0
LINE
  5
2F0
  8
BLATTANSICHT_1_GEOMETRIEAN
  6
VOLLINIE
 62
    18
 10
-9.90474405641362
 20
2.000000000833804
 30
0.0
 11
-10.19130985134505
 21
2.000000000833804
 31
0.0
  0
LINE
  5
2F1
  8
BLATTANSICHT_1_GEOMETRIEAN
  6
VOLLINIE
 62
    18
 10
-9.601237741695664
 20
2.000000000833804
 30
0.0
 11
-9.90474405641362
 21
2.000000000833804
 31
0.0
  0
LINE
  5
2F2
  8
BLATTANSICHT_1_GEOMETRIEAN
  6
VOLLINIE
 62
    18
 10
-11.49194636738141
 20
0.0
 30
0.0
 11
-11.32990561824994
 21
0.0
 31
0.0
  0
LINE
  5
2F3
  8
BLATTANSICHT_1_GEOMETRIEAN
  6
VOLLINIE
 62
    18
 10
-11.32990561824994
 20
0.0
 30
0.0
 11
-11.14482158750395
 21
0.0
 31
0.0
  0
LINE
  5
2F4
  8
BLATTANSICHT_1_GEOMETRIEAN
  6
VOLLINIE
 62
    18
 10
-11.14482158750395
 20
0.0
 30
0.0
 11
-10.937486833412
 21
0.0
 31
0.0
  0
LINE
  5
2F5
  8
BLATTANSICHT_1_GEOMETRIEAN
  6
VOLLINIE
 62
    18
 10
-10.937486833412
 20
0.0
 30
0.0
 11
-10.70878920237002
 21
0.0
 31
0.0
  0
LINE
  5
2F6
  8
BLATTANSICHT_1_GEOMETRIEAN
  6
VOLLINIE
 62
    18
 10
-10.45970800688892
 20
0.0
 30
0.0
 11
-10.19130985087013
 21
0.0
 31
0.0
  0
LINE
  5
2F7
  8
BLATTANSICHT_1_GEOMETRIEAN
  6
VOLLINIE
 62
    18
 10
-10.70878920237002
 20
0.0
 30
0.0
 11
-10.45970800688892
 21
0.0
 31
0.0
  0
LINE
  5
2F8
  8
BLATTANSICHT_1_GEOMETRIEAN
  6
VOLLINIE
 62
    18
 10
-27.18809559853789
 20
0.9299099678208156
 30
0.0
 11
-26.9487352182852
 21
0.7583867450153243
 31
0.0
  0
LINE
  5
2F9
  8
BLATTANSICHT_1_GEOMETRIEAN
  6
VOLLINIE
 62
    18
 10
-27.41572533442316
 20
1.11672086401558
 30
0.0
 11
-27.18809559853789
 21
0.9299099678208156
 31
0.0
  0
LINE
  5
2FA
  8
BLATTANSICHT_1_GEOMETRIEAN
  6
VOLLINIE
 62
    18
 10
-27.63064968047956
 20
1.318019480673832
 30
0.0
 11
-27.41572533442316
 21
1.11672086401558
 31
0.0
  0
LINE
  5
2FB
  8
BLATTANSICHT_1_GEOMETRIEAN
  6
VOLLINIE
 62
    18
 10
-27.83194830146239
 20
1.532943830546508
 30
0.0
 11
-27.63064968047956
 21
1.318019480673832
 31
0.0
  0
LINE
  5
2FC
  8
BLATTANSICHT_1_GEOMETRIEAN
  6
VOLLINIE
 62
    18
 10
-28.01875920143229
 20
1.760573570761241
 30
0.0
 11
-27.83194830146239
 21
1.532943830546508
 31
0.0
  0
LINE
  5
2FD
  8
BLATTANSICHT_1_GEOMETRIEAN
  6
VOLLINIE
 62
    18
 10
-28.19028242741611
 20
1.999933955799956
 30
0.0
 11
-28.01875920143229
 21
1.760573570761241
 31
0.0
  0
LINE
  5
2FE
  8
BLATTANSICHT_1_GEOMETRIEAN
  6
VOLLINIE
 62
    18
 10
-28.53531345284485
 20
2.61603118436143
 30
0.0
 11
-28.37490120312056
 21
2.301204417141664
 31
0.0
  0
LINE
  5
2FF
  8
BLATTANSICHT_1_GEOMETRIEAN
  6
VOLLINIE
 62
    18
 10
-28.86220293114805
 20
3.622093552017791
 30
0.0
 11
-28.77971773368708
 21
3.278517977479262
 31
0.0
  0
LINE
  5
300
  8
BLATTANSICHT_1_GEOMETRIEAN
  6
VOLLINIE
 62
    18
 10
-28.77971773368708
 20
3.278517977479262
 30
0.0
 11
-28.67053018173162
 21
2.942473245757967
 31
0.0
  0
LINE
  5
301
  8
BLATTANSICHT_1_GEOMETRIEAN
  6
VOLLINIE
 62
    18
 10
-28.67053018173162
 20
2.942473245757967
 30
0.0
 11
-28.53531345284485
 21
2.61603118436143
 31
0.0
  0
LINE
  5
302
  8
BLATTANSICHT_1_GEOMETRIEAN
  6
VOLLINIE
 62
    18
 10
-28.37490120312056
 20
2.301204417141664
 30
0.0
 11
-28.19028242741611
 21
1.999933955799956
 31
0.0
  0
LINE
  5
303
  8
BLATTANSICHT_1_GEOMETRIEAN
  6
VOLLINIE
 62
    18
 10
-28.94866916911409
 20
4.499999999179156
 30
0.0
 11
-28.93903432367709
 21
4.205685918288148
 31
0.0
  0
LINE
  5
304
  8
BLATTANSICHT_1_GEOMETRIEAN
  6
VOLLINIE
 62
    18
 10
-28.93903432367709
 20
4.205685918288148
 30
0.0
 11
-28.91017104535895
 21
3.912632135473365
 31
0.0
  0
LINE
  5
305
  8
BLATTANSICHT_1_GEOMETRIEAN
  6
VOLLINIE
 62
    18
 10
-28.91017104535895
 20
3.912632135473365
 30
0.0
 11
-28.86220293114805
 21
3.622093552017791
 31
0.0
  0
LINE
  5
306
  8
BLATTANSICHT_1_GEOMETRIEAN
  6
VOLLINIE
 62
    18
 10
-28.94443230865171
 20
4.695227542037161
 30
0.0
 11
-28.94866916911409
 21
4.499999999179156
 31
0.0
  0
LINE
  5
307
  8
BLATTANSICHT_1_GEOMETRIEAN
  6
VOLLINIE
 62
    18
 10
-28.93172970548083
 20
4.890087461040768
 30
0.0
 11
-28.94443230865171
 21
4.695227542037161
 31
0.0
  0
LINE
  5
308
  8
BLATTANSICHT_1_GEOMETRIEAN
  6
VOLLINIE
 62
    18
 10
-28.91058527922684
 20
5.084212826204123
 30
0.0
 11
-28.93172970548083
 21
4.890087461040768
 31
0.0
  0
LINE
  5
309
  8
BLATTANSICHT_1_GEOMETRIEAN
  6
VOLLINIE
 62
    18
 10
-28.85138911325934
 20
5.430621885301437
 30
0.0
 11
-28.91058527922684
 21
5.084212826204123
 31
0.0
  0
LINE
  5
30A
  8
BLATTANSICHT_1_GEOMETRIEAN
  6
VOLLINIE
 62
    18
 10
-28.51494898703713
 20
6.427529102841985
 30
0.0
 11
-28.65296588202574
 21
6.104334488116334
 31
0.0
  0
LINE
  5
30B
  8
BLATTANSICHT_1_GEOMETRIEAN
  6
VOLLINIE
 62
    18
 10
-28.35213211804843
 20
6.738967843949523
 30
0.0
 11
-28.51494898703713
 21
6.427529102841985
 31
0.0
  0
LINE
  5
30C
  8
BLATTANSICHT_1_GEOMETRIEAN
  6
VOLLINIE
 62
    18
 10
-28.65296588202574
 20
6.104334488116334
 30
0.0
 11
-28.76534104702092
 21
5.771355142537315
 31
0.0
  0
LINE
  5
30D
  8
BLATTANSICHT_1_GEOMETRIEAN
  6
VOLLINIE
 62
    18
 10
-28.76534104702092
 20
5.771355142537315
 30
0.0
 11
-28.85138911325934
 21
5.430621885301437
 31
0.0
  0
LINE
  5
30E
  8
BLATTANSICHT_1_GEOMETRIEAN
  6
VOLLINIE
 62
    18
 10
-28.14335082234623
 20
7.068915623605517
 30
0.0
 11
-28.25132176081674
 21
6.906207236868021
 31
0.0
  0
LINE
  5
30F
  8
BLATTANSICHT_1_GEOMETRIEAN
  6
VOLLINIE
 62
    18
 10
-28.02842261720685
 20
7.226786616293755
 30
0.0
 11
-28.14335082234623
 21
7.068915623605517
 31
0.0
  0
LINE
  5
310
  8
BLATTANSICHT_1_GEOMETRIEAN
  6
VOLLINIE
 62
    18
 10
-28.25132176081674
 20
6.906207236868021
 30
0.0
 11
-28.35213211804843
 21
6.738967843949523
 31
0.0
  0
LINE
  5
311
  8
BLATTANSICHT_1_GEOMETRIEAN
  6
VOLLINIE
 62
    18
 10
-27.77857275288725
 20
7.526836983171997
 30
0.0
 11
-27.9067535564837
 21
7.379522941349373
 31
0.0
  0
LINE
  5
312
  8
BLATTANSICHT_1_GEOMETRIEAN
  6
VOLLINIE
 62
    18
 10
-27.64412157717101
 20
7.668451342180068
 30
0.0
 11
-27.77857275288725
 21
7.526836983171997
 31
0.0
  0
LINE
  5
313
  8
BLATTANSICHT_1_GEOMETRIEAN
  6
VOLLINIE
 62
    18
 10
-27.9067535564837
 20
7.379522941349373
 30
0.0
 11
-28.02842261720685
 21
7.226786616293755
 31
0.0
  0
LINE
  5
314
  8
BLATTANSICHT_1_GEOMETRIEAN
  6
VOLLINIE
 62
    18
 10
-27.35743215923241
 20
7.933525573988161
 30
0.0
 11
-27.64412157717101
 21
7.668451342180068
 31
0.0
  0
LINE
  5
315
  8
BLATTANSICHT_1_GEOMETRIEAN
  6
VOLLINIE
 62
    18
 10
-27.04884368162654
 20
8.172749992088661
 30
0.0
 11
-27.35743215923241
 21
7.933525573988161
 31
0.0
  0
LINE
  5
316
  8
BLATTANSICHT_1_GEOMETRIEAN
  6
VOLLINIE
 62
    18
 10
-26.72067939912073
 20
8.384323559469049
 30
0.0
 11
-27.04884368162654
 21
8.172749992088661
 31
0.0
  0
LINE
  5
317
  8
BLATTANSICHT_1_GEOMETRIEAN
  6
VOLLINIE
 62
    18
 10
-23.9584514941141
 20
9.999999999987303
 30
0.0
 11
-26.72067939912073
 21
8.384323559469049
 31
0.0
  0
LINE
  5
318
  8
BLATTANSICHT_1_GEOMETRIEAN
  6
VOLLINIE
 62
    18
 10
-22.9486691691141
 20
8.273633973987307
 30
0.0
 11
-23.9584514941141
 21
9.999999999987303
 31
0.0
  0
LINE
  5
319
  8
BLATTANSICHT_1_GEOMETRIEAN
  6
VOLLINIE
 62
    18
 10
-25.71089707467334
 20
6.657957533032724
 30
0.0
 11
-22.9486691691141
 21
8.273633973987307
 31
0.0
  0
LINE
  5
31A
  8
BLATTANSICHT_1_GEOMETRIEAN
  6
VOLLINIE
 62
    18
 10
-25.89321056752716
 20
6.540416660444365
 30
0.0
 11
-25.71089707467334
 21
6.657957533032724
 31
0.0
  0
LINE
  5
31B
  8
BLATTANSICHT_1_GEOMETRIEAN
  6
VOLLINIE
 62
    18
 10
-26.06464861287919
 20
6.407514203690267
 30
0.0
 11
-25.89321056752716
 21
6.540416660444365
 31
0.0
  0
LINE
  5
31C
  8
BLATTANSICHT_1_GEOMETRIEAN
  6
VOLLINIE
 62
    18
 10
-26.22392051358214
 20
6.26025073893457
 30
0.0
 11
-26.06464861287919
 21
6.407514203690267
 31
0.0
  0
LINE
  5
31D
  8
BLATTANSICHT_1_GEOMETRIEAN
  6
VOLLINIE
 62
    18
 10
-26.36982716390557
 20
6.099734965238945
 30
0.0
 11
-26.22392051358214
 21
6.26025073893457
 31
0.0
  0
LINE
  5
31E
  8
BLATTANSICHT_1_GEOMETRIEAN
  6
VOLLINIE
 62
    18
 10
-26.50127008756476
 20
5.927175346458575
 30
0.0
 11
-26.36982716390557
 21
6.099734965238945
 31
0.0
  0
LINE
  5
31F
  8
BLATTANSICHT_1_GEOMETRIEAN
  6
VOLLINIE
 62
    18
 10
-26.61725969675644
 20
5.743871023614688
 30
0.0
 11
-26.50127008756476
 21
5.927175346458575
 31
0.0
  0
LINE
  5
320
  8
BLATTANSICHT_1_GEOMETRIEAN
  6
VOLLINIE
 62
    18
 10
-26.71692274808917
 20
5.551202026938688
 30
0.0
 11
-26.61725969675644
 21
5.743871023614688
 31
0.0
  0
LINE
  5
321
  8
BLATTANSICHT_1_GEOMETRIEAN
  6
VOLLINIE
 62
    18
 10
-26.7995089108149
 20
5.35061889752018
 30
0.0
 11
-26.71692274808917
 21
5.551202026938688
 31
0.0
  0
LINE
  5
322
  8
BLATTANSICHT_1_GEOMETRIEAN
  6
VOLLINIE
 62
    18
 10
-26.8643964225723
 20
5.143631755651404
 30
0.0
 11
-26.7995089108149
 21
5.35061889752018
 31
0.0
  0
LINE
  5
323
  8
BLATTANSICHT_1_GEOMETRIEAN
  6
VOLLINIE
 62
    18
 10
-26.91109676763038
 20
4.931798937069447
 30
0.0
 11
-26.8643964225723
 21
5.143631755651404
 31
0.0
  0
LINE
  5
324
  8
BLATTANSICHT_1_GEOMETRIEAN
  6
VOLLINIE
 62
    18
 10
-26.93925835606271
 20
4.716715255229341
 30
0.0
 11
-26.91109676763038
 21
4.931798937069447
 31
0.0
  0
LINE
  5
325
  8
BLATTANSICHT_1_GEOMETRIEAN
  6
VOLLINIE
 62
    18
 10
-26.94866916911409
 20
4.499999999987291
 30
0.0
 11
-26.93925835606271
 21
4.716715255229341
 31
0.0
  0
LINE
  5
326
  8
BLATTANSICHT_1_GEOMETRIEAN
  6
VOLLINIE
 62
    18
 10
-26.9398229044021
 20
4.289873687592522
 30
0.0
 11
-26.94866916911409
 21
4.499999999987291
 31
0.0
  0
LINE
  5
327
  8
BLATTANSICHT_1_GEOMETRIEAN
  6
VOLLINIE
 62
    18
 10
-26.91334671546079
 20
4.081234442026286
 30
0.0
 11
-26.9398229044021
 21
4.289873687592522
 31
0.0
  0
LINE
  5
328
  8
BLATTANSICHT_1_GEOMETRIEAN
  6
VOLLINIE
 62
    18
 10
-26.86942797459016
 20
3.875558805229806
 30
0.0
 11
-26.91334671546079
 21
4.081234442026286
 31
0.0
  0
LINE
  5
329
  8
BLATTANSICHT_1_GEOMETRIEAN
  6
VOLLINIE
 62
    18
 10
-26.80837749523488
 20
3.674302346099204
 30
0.0
 11
-26.86942797459016
 21
3.875558805229806
 31
0.0
  0
LINE
  5
32A
  8
BLATTANSICHT_1_GEOMETRIEAN
  6
VOLLINIE
 62
    18
 10
-26.73062733235406
 20
3.478889358958377
 30
0.0
 11
-26.80837749523488
 21
3.674302346099204
 31
0.0
  0
LINE
  5
32B
  8
BLATTANSICHT_1_GEOMETRIEAN
  6
VOLLINIE
 62
    18
 10
-26.63672772476316
 20
3.290702783811329
 30
0.0
 11
-26.73062733235406
 21
3.478889358958377
 31
0.0
  0
LINE
  5
32C
  8
BLATTANSICHT_1_GEOMETRIEAN
  6
VOLLINIE
 62
    18
 10
-26.52734320108742
 20
3.11107441925959
 30
0.0
 11
-26.63672772476316
 21
3.290702783811329
 31
0.0
  0
LINE
  5
32D
  8
BLATTANSICHT_1_GEOMETRIEAN
  6
VOLLINIE
 62
    18
 10
-26.43205251930204
 20
2.978096426761581
 30
0.0
 11
-26.52734320108742
 21
3.11107441925959
 31
0.0
  0
LINE
  5
32E
  8
BLATTANSICHT_1_GEOMETRIEAN
  6
VOLLINIE
 62
    18
 10
-26.32826868519721
 20
2.851635459256048
 30
0.0
 11
-26.43205251930204
 21
2.978096426761581
 31
0.0
  0
LINE
  5
32F
  8
BLATTANSICHT_1_GEOMETRIEAN
  6
VOLLINIE
 62
    18
 10
-26.21643611710046
 20
2.732233042040924
 30
0.0
 11
-26.32826868519721
 21
2.851635459256048
 31
0.0
  0
LINE
  5
330
  8
BLATTANSICHT_1_GEOMETRIEAN
  6
VOLLINIE
 62
    18
 10
-26.09703370247224
 20
2.620400477438143
 30
0.0
 11
-26.21643611710046
 21
2.732233042040924
 31
0.0
  0
LINE
  5
331
  8
BLATTANSICHT_1_GEOMETRIEAN
  6
VOLLINIE
 62
    18
 10
-25.97057273795424
 20
2.516616646434172
 30
0.0
 11
-26.09703370247224
 21
2.620400477438143
 31
0.0
  0
LINE
  5
332
  8
BLATTANSICHT_1_GEOMETRIEAN
  6
VOLLINIE
 62
    18
 10
-25.83759474880323
 20
2.421325967320014
 30
0.0
 11
-25.97057273795424
 21
2.516616646434172
 31
0.0
  0
LINE
  5
333
  8
BLATTANSICHT_1_GEOMETRIEAN
  6
VOLLINIE
 62
    18
 10
-25.67022227040724
 20
2.31875998093366
 30
0.0
 11
-25.83759474880323
 21
2.421325967320014
 31
0.0
  0
LINE
  5
334
  8
BLATTANSICHT_1_GEOMETRIEAN
  6
VOLLINIE
 62
    18
 10
-25.49531851098263
 20
2.229642064514085
 30
0.0
 11
-25.67022227040724
 21
2.31875998093366
 31
0.0
  0
LINE
  5
335
  8
BLATTANSICHT_1_GEOMETRIEAN
  6
VOLLINIE
 62
    18
 10
-25.31396181036074
 20
2.154521659647235
 30
0.0
 11
-25.49531851098263
 21
2.229642064514085
 31
0.0
  0
LINE
  5
336
  8
BLATTANSICHT_1_GEOMETRIEAN
  6
VOLLINIE
 62
    18
 10
-25.12727029290089
 20
2.09386190860616
 30
0.0
 11
-25.31396181036074
 21
2.154521659647235
 31
0.0
  0
LINE
  5
337
  8
BLATTANSICHT_1_GEOMETRIEAN
  6
VOLLINIE
 62
    18
 10
-24.93639497388206
 20
2.048036798925058
 30
0.0
 11
-25.12727029290089
 21
2.09386190860616
 31
0.0
  0
LINE
  5
338
  8
BLATTANSICHT_1_GEOMETRIEAN
  6
VOLLINIE
 62
    18
 10
-24.77498464916285
 20
2.021387846486772
 30
0.0
 11
-24.93639497388206
 21
2.048036798925058
 31
0.0
  0
LINE
  5
339
  8
BLATTANSICHT_1_GEOMETRIEAN
  6
VOLLINIE
 62
    18
 10
-24.61217699145731
 20
2.005352691842797
 30
0.0
 11
-24.77498464916285
 21
2.021387846486772
 31
0.0
  0
LINE
  5
33A
  8
BLATTANSICHT_1_GEOMETRIEAN
  6
VOLLINIE
 62
    18
 10
-24.44866916815236
 20
1.999999999987295
 30
0.0
 11
-24.61217699145731
 21
2.005352691842797
 31
0.0
  0
LINE
  5
33B
  8
BLATTANSICHT_1_GEOMETRIEAN
  6
VOLLINIE
 62
    18
 10
-26.9487352182852
 20
0.7583867450153243
 30
0.0
 11
-26.64746475571876
 21
0.5737679680859965
 31
0.0
  0
LINE
  5
33C
  8
BLATTANSICHT_1_GEOMETRIEAN
  6
VOLLINIE
 62
    18
 10
-26.33263798712186
 20
0.4133557173546102
 30
0.0
 11
-26.00619592422277
 21
0.2781389876941714
 31
0.0
  0
LINE
  5
33D
  8
BLATTANSICHT_1_GEOMETRIEAN
  6
VOLLINIE
 62
    18
 10
-26.64746475571876
 20
0.5737679680859965
 30
0.0
 11
-26.33263798712186
 21
0.4133557173546102
 31
0.0
  0
LINE
  5
33E
  8
BLATTANSICHT_1_GEOMETRIEAN
  6
VOLLINIE
 62
    18
 10
-26.00619592422277
 20
0.2781389876941714
 30
0.0
 11
-25.67015119090195
 21
0.1689514352112054
 31
0.0
  0
LINE
  5
33F
  8
BLATTANSICHT_1_GEOMETRIEAN
  6
VOLLINIE
 62
    18
 10
-25.67015119090195
 20
0.1689514352112054
 30
0.0
 11
-25.32657561469654
 21
0.086466237478527
 31
0.0
  0
LINE
  5
340
  8
BLATTANSICHT_1_GEOMETRIEAN
  6
VOLLINIE
 62
    18
 10
-25.32657561469654
 20
0.086466237478527
 30
0.0
 11
-25.03603703118019
 21
0.0384981234201796
 31
0.0
  0
LINE
  5
341
  8
BLATTANSICHT_1_GEOMETRIEAN
  6
VOLLINIE
 62
    18
 10
-25.03603703118019
 20
0.0384981234201796
 30
0.0
 11
-24.74298324831451
 21
0.0096348452605221
 31
0.0
  0
LINE
  5
342
  8
BLATTANSICHT_1_GEOMETRIEAN
  6
VOLLINIE
 62
    18
 10
-24.74298324831451
 20
0.0096348452605221
 30
0.0
 11
-24.44866916738298
 21
-0.0000000000127011
 31
0.0
  0
LINE
  5
343
  8
BLATTANSICHT_1_GEOMETRIEAN
  6
VOLLINIE
 62
    18
 10
-24.44866916738298
 20
-0.0000000000127011
 30
0.0
 11
-11.9486691691141
 21
-0.0000000000127011
 31
0.0
  0
LINE
  5
344
  8
BLATTANSICHT_1_GEOMETRIEAN
  6
VOLLINIE
 62
    18
 10
-11.9486691691141
 20
1.999999999407307
 30
0.0
 11
-24.44866916815236
 21
1.999999999987295
 31
0.0
  0
LINE
  5
345
  8
BLATTANSICHT_1_GEOMETRIEAN
  6
VOLLINIE
 62
    18
 10
-7.694755362447846
 20
2.000000000833804
 30
0.0
 11
-7.752903966161005
 21
2.000000000833804
 31
0.0
  0
LINE
  5
346
  8
BLATTANSICHT_1_GEOMETRIEAN
  6
VOLLINIE
 62
    18
 10
-7.614711187669026
 20
2.000000000833804
 30
0.0
 11
-7.694755362447846
 21
2.000000000833804
 31
0.0
  0
LINE
  5
347
  8
BLATTANSICHT_1_GEOMETRIEAN
  6
VOLLINIE
 62
    18
 10
-7.527532764463851
 20
2.000000000833804
 30
0.0
 11
-7.614711187669026
 21
2.000000000833804
 31
0.0
  0
LINE
  5
348
  8
BLATTANSICHT_1_GEOMETRIEAN
  6
VOLLINIE
 62
    18
 10
-7.433593404262433
 20
2.000000000833804
 30
0.0
 11
-7.527532764463851
 21
2.000000000833804
 31
0.0
  0
LINE
  5
349
  8
BLATTANSICHT_1_GEOMETRIEAN
  6
VOLLINIE
 62
    18
 10
-7.333295376474343
 20
2.000000000833804
 30
0.0
 11
-7.433593404262433
 21
2.000000000833804
 31
0.0
  0
LINE
  5
34A
  8
BLATTANSICHT_1_GEOMETRIEAN
  6
VOLLINIE
 62
    18
 10
-7.227068166847913
 20
2.000000000833804
 30
0.0
 11
-7.333295376474343
 21
2.000000000833804
 31
0.0
  0
LINE
  5
34B
  8
BLATTANSICHT_1_GEOMETRIEAN
  6
VOLLINIE
 62
    18
 10
-7.115366656591343
 20
2.000000000833804
 30
0.0
 11
-7.227068166847913
 21
2.000000000833804
 31
0.0
  0
LINE
  5
34C
  8
BLATTANSICHT_1_GEOMETRIEAN
  6
VOLLINIE
 62
    18
 10
-6.998669165353747
 20
2.000000000833804
 30
0.0
 11
-7.115366656591343
 21
2.000000000833804
 31
0.0
  0
LINE
  5
34D
  8
BLATTANSICHT_1_GEOMETRIEAN
  6
VOLLINIE
 62
    18
 10
-6.877475412796304
 20
2.000000000833804
 30
0.0
 11
-6.998669165353747
 21
2.000000000833804
 31
0.0
  0
LINE
  5
34E
  8
BLATTANSICHT_1_GEOMETRIEAN
  6
VOLLINIE
 62
    18
 10
-6.752304369189287
 20
2.000000000833804
 30
0.0
 11
-6.877475412796304
 21
2.000000000833804
 31
0.0
  0
LINE
  5
34F
  8
BLATTANSICHT_1_GEOMETRIEAN
  6
VOLLINIE
 62
    18
 10
-6.623692041624923
 20
2.000000000833804
 30
0.0
 11
-6.752304369189287
 21
2.000000000833804
 31
0.0
  0
LINE
  5
350
  8
BLATTANSICHT_1_GEOMETRIEAN
  6
VOLLINIE
 62
    18
 10
-6.492189162643057
 20
2.000000000833804
 30
0.0
 11
-6.623692041624923
 21
2.000000000833804
 31
0.0
  0
LINE
  5
351
  8
BLATTANSICHT_1_GEOMETRIEAN
  6
VOLLINIE
 62
    18
 10
-6.358358847730226
 20
2.000000000833804
 30
0.0
 11
-6.492189162643057
 21
2.000000000833804
 31
0.0
  0
LINE
  5
352
  8
BLATTANSICHT_1_GEOMETRIEAN
  6
VOLLINIE
 62
    18
 10
-6.222774174381446
 20
2.000000000833804
 30
0.0
 11
-6.358358847730226
 21
2.000000000833804
 31
0.0
  0
LINE
  5
353
  8
BLATTANSICHT_1_GEOMETRIEAN
  6
VOLLINIE
 62
    18
 10
-6.086015741305113
 20
2.000000000833804
 30
0.0
 11
-6.222774174381446
 21
2.000000000833804
 31
0.0
  0
LINE
  5
354
  8
BLATTANSICHT_1_GEOMETRIEAN
  6
VOLLINIE
 62
    18
 10
-6.08601574124348
 20
0.0
 30
0.0
 11
-5.948669168736965
 21
-0.0000000000127011
 31
0.0
  0
LINE
  5
355
  8
BLATTANSICHT_1_GEOMETRIEAN
  6
VOLLINIE
 62
    18
 10
-6.222774174258959
 20
0.0
 30
0.0
 11
-6.08601574124348
 21
0.0
 31
0.0
  0
LINE
  5
356
  8
BLATTANSICHT_1_GEOMETRIEAN
  6
VOLLINIE
 62
    18
 10
-6.358358847548474
 20
0.0
 30
0.0
 11
-6.222774174258959
 21
0.0
 31
0.0
  0
LINE
  5
357
  8
BLATTANSICHT_1_GEOMETRIEAN
  6
VOLLINIE
 62
    18
 10
-6.492189162406688
 20
0.0
 30
0.0
 11
-6.358358847548474
 21
0.0
 31
0.0
  0
LINE
  5
358
  8
BLATTANSICHT_1_GEOMETRIEAN
  6
VOLLINIE
 62
    18
 10
-6.62369204133696
 20
0.0
 30
0.0
 11
-6.492189162406688
 21
0.0
 31
0.0
  0
LINE
  5
359
  8
BLATTANSICHT_1_GEOMETRIEAN
  6
VOLLINIE
 62
    18
 10
-6.752304368853463
 20
0.0
 30
0.0
 11
-6.62369204133696
 21
0.0
 31
0.0
  0
LINE
  5
35A
  8
BLATTANSICHT_1_GEOMETRIEAN
  6
VOLLINIE
 62
    18
 10
-6.877475412421203
 20
0.0
 30
0.0
 11
-6.752304368853463
 21
0.0
 31
0.0
  0
LINE
  5
35B
  8
BLATTANSICHT_1_GEOMETRIEAN
  6
VOLLINIE
 62
    18
 10
-6.998669164944141
 20
0.0
 30
0.0
 11
-6.877475412421203
 21
0.0
 31
0.0
  0
LINE
  5
35C
  8
BLATTANSICHT_1_GEOMETRIEAN
  6
VOLLINIE
 62
    18
 10
-7.115366656152556
 20
0.0
 30
0.0
 11
-6.998669164944141
 21
0.0
 31
0.0
  0
LINE
  5
35D
  8
BLATTANSICHT_1_GEOMETRIEAN
  6
VOLLINIE
 62
    18
 10
-7.227068166391181
 20
0.0
 30
0.0
 11
-7.115366656152556
 21
0.0
 31
0.0
  0
LINE
  5
35E
  8
BLATTANSICHT_1_GEOMETRIEAN
  6
VOLLINIE
 62
    18
 10
-7.333295376005428
 20
0.0
 30
0.0
 11
-7.227068166391181
 21
0.0
 31
0.0
  0
LINE
  5
35F
  8
BLATTANSICHT_1_GEOMETRIEAN
  6
VOLLINIE
 62
    18
 10
-7.433593403787493
 20
0.0
 30
0.0
 11
-7.333295376005428
 21
0.0
 31
0.0
  0
LINE
  5
360
  8
BLATTANSICHT_1_GEOMETRIEAN
  6
VOLLINIE
 62
    18
 10
-7.527532763995026
 20
0.0
 30
0.0
 11
-7.433593403787493
 21
0.0
 31
0.0
  0
LINE
  5
361
  8
BLATTANSICHT_1_GEOMETRIEAN
  6
VOLLINIE
 62
    18
 10
-7.614711187212203
 20
0.0
 30
0.0
 11
-7.527532763995026
 21
0.0
 31
0.0
  0
LINE
  5
362
  8
BLATTANSICHT_1_GEOMETRIEAN
  6
VOLLINIE
 62
    18
 10
-7.694755362009059
 20
0.0
 30
0.0
 11
-7.614711187212203
 21
0.0
 31
0.0
  0
LINE
  5
363
  8
BLATTANSICHT_1_GEOMETRIEAN
  6
VOLLINIE
 62
    18
 10
-7.752903966048094
 20
0.0
 30
0.0
 11
-7.694755362009059
 21
0.0
 31
0.0
  0
LINE
  5
364
  8
BLATTANSICHT_1_GEOMETRIEAN
  6
VOLLINIE
 62
    18
 10
-7.832101927556607
 20
0.0
 30
0.0
 11
-7.767322520929252
 21
0.0
 31
0.0
  0
LINE
  5
365
  8
BLATTANSICHT_1_GEOMETRIEAN
  6
VOLLINIE
 62
    18
 10
-7.977113401771664
 20
0.0
 30
0.0
 11
-7.937222439115662
 21
0.0
 31
0.0
  0
LINE
  5
366
  8
BLATTANSICHT_1_GEOMETRIEAN
  6
VOLLINIE
 62
    18
 10
-8.047843084264107
 20
0.0
 30
0.0
 11
-8.035464808559905
 21
0.0
 31
0.0
  0
LINE
  5
367
  8
BLATTANSICHT_1_GEOMETRIEAN
  6
VOLLINIE
 62
    18
 10
-5.674564173912874
 20
2.000000000833804
 30
0.0
 11
-5.811322601798485
 21
2.000000000833804
 31
0.0
  0
LINE
  5
368
  8
BLATTANSICHT_1_GEOMETRIEAN
  6
VOLLINIE
 62
    18
 10
-5.538979505625934
 20
2.000000000833804
 30
0.0
 11
-5.674564173912874
 21
2.000000000833804
 31
0.0
  0
LINE
  5
369
  8
BLATTANSICHT_1_GEOMETRIEAN
  6
VOLLINIE
 62
    18
 10
-5.405149183001161
 20
2.000000000833804
 30
0.0
 11
-5.538979505625934
 21
2.000000000833804
 31
0.0
  0
LINE
  5
36A
  8
BLATTANSICHT_1_GEOMETRIEAN
  6
VOLLINIE
 62
    18
 10
-5.273646296542425
 20
2.000000000833804
 30
0.0
 11
-5.405149183001161
 21
2.000000000833804
 31
0.0
  0
LINE
  5
36B
  8
BLATTANSICHT_1_GEOMETRIEAN
  6
VOLLINIE
 62
    18
 10
-5.14503396183186
 20
2.000000000833804
 30
0.0
 11
-5.273646296542425
 21
2.000000000833804
 31
0.0
  0
LINE
  5
36C
  8
BLATTANSICHT_1_GEOMETRIEAN
  6
VOLLINIE
 62
    18
 10
-5.019862918787257
 20
2.000000000833804
 30
0.0
 11
-5.14503396183186
 21
2.000000000833804
 31
0.0
  0
LINE
  5
36D
  8
BLATTANSICHT_1_GEOMETRIEAN
  6
VOLLINIE
 62
    18
 10
-4.898669166803846
 20
2.000000000833804
 30
0.0
 11
-5.019862918787257
 21
2.000000000833804
 31
0.0
  0
LINE
  5
36E
  8
BLATTANSICHT_1_GEOMETRIEAN
  6
VOLLINIE
 62
    18
 10
-4.781971676146735
 20
2.000000000833804
 30
0.0
 11
-4.898669166803846
 21
2.000000000833804
 31
0.0
  0
LINE
  5
36F
  8
BLATTANSICHT_1_GEOMETRIEAN
  6
VOLLINIE
 62
    18
 10
-4.670270171132053
 20
2.000000000833804
 30
0.0
 11
-4.781971676146735
 21
2.000000000833804
 31
0.0
  0
LINE
  5
370
  8
BLATTANSICHT_1_GEOMETRIEAN
  6
VOLLINIE
 62
    18
 10
-4.564042966256162
 20
2.000000000833804
 30
0.0
 11
-4.670270171132053
 21
2.000000000833804
 31
0.0
  0
LINE
  5
371
  8
BLATTANSICHT_1_GEOMETRIEAN
  6
VOLLINIE
 62
    18
 10
-4.463744942665615
 20
2.000000000833804
 30
0.0
 11
-4.564042966256162
 21
2.000000000833804
 31
0.0
  0
LINE
  5
372
  8
BLATTANSICHT_1_GEOMETRIEAN
  6
VOLLINIE
 62
    18
 10
-4.344190692169028
 20
2.000000000833804
 30
0.0
 11
-4.463744942665615
 21
2.000000000833804
 31
0.0
  0
LINE
  5
373
  8
BLATTANSICHT_1_GEOMETRIEAN
  6
VOLLINIE
 62
    18
 10
-4.235991354858346
 20
2.000000000833804
 30
0.0
 11
-4.344190692169028
 21
2.000000000833804
 31
0.0
  0
LINE
  5
374
  8
BLATTANSICHT_1_GEOMETRIEAN
  6
VOLLINIE
 62
    18
 10
-4.144434385950389
 20
2.000000000833804
 30
0.0
 11
-4.235991354858346
 21
2.000000000833804
 31
0.0
  0
LINE
  5
375
  8
BLATTANSICHT_1_GEOMETRIEAN
  6
VOLLINIE
 62
    18
 10
-3.861873530389295
 20
0.0
 30
0.0
 11
-3.849495254879852
 21
0.0
 31
0.0
  0
LINE
  5
376
  8
BLATTANSICHT_1_GEOMETRIEAN
  6
VOLLINIE
 62
    18
 10
-3.986746400028764
 20
0.0
 30
0.0
 11
-3.930742797254172
 21
0.0
 31
0.0
  0
LINE
  5
377
  8
BLATTANSICHT_1_GEOMETRIEAN
  6
VOLLINIE
 62
    18
 10
-4.056634553482966
 20
0.0
 30
0.0
 11
-3.986746400028764
 21
0.0
 31
0.0
  0
LINE
  5
378
  8
BLATTANSICHT_1_GEOMETRIEAN
  6
VOLLINIE
 62
    18
 10
-4.139912658327046
 20
0.0
 30
0.0
 11
-4.056634553482966
 21
0.0
 31
0.0
  0
LINE
  5
379
  8
BLATTANSICHT_1_GEOMETRIEAN
  6
VOLLINIE
 62
    18
 10
-4.235991354426721
 20
0.0
 30
0.0
 11
-4.139912658327046
 21
0.0
 31
0.0
  0
LINE
  5
37A
  8
BLATTANSICHT_1_GEOMETRIEAN
  6
VOLLINIE
 62
    18
 10
-4.344190691711753
 20
0.0
 30
0.0
 11
-4.235991354426721
 21
0.0
 31
0.0
  0
LINE
  5
37B
  8
BLATTANSICHT_1_GEOMETRIEAN
  6
VOLLINIE
 62
    18
 10
-4.46374494219071
 20
0.0
 30
0.0
 11
-4.344190691711753
 21
0.0
 31
0.0
  0
LINE
  5
37C
  8
BLATTANSICHT_1_GEOMETRIEAN
  6
VOLLINIE
 62
    18
 10
-4.56404296578728
 20
0.0
 30
0.0
 11
-4.46374494219071
 21
0.0
 31
0.0
  0
LINE
  5
37D
  8
BLATTANSICHT_1_GEOMETRIEAN
  6
VOLLINIE
 62
    18
 10
-4.670270170675354
 20
0.0
 30
0.0
 11
-4.56404296578728
 21
0.0
 31
0.0
  0
LINE
  5
37E
  8
BLATTANSICHT_1_GEOMETRIEAN
  6
VOLLINIE
 62
    18
 10
-4.781971675707982
 20
0.0
 30
0.0
 11
-4.670270170675354
 21
0.0
 31
0.0
  0
LINE
  5
37F
  8
BLATTANSICHT_1_GEOMETRIEAN
  6
VOLLINIE
 62
    18
 10
-4.898669166394263
 20
0.0
 30
0.0
 11
-4.781971675707982
 21
0.0
 31
0.0
  0
LINE
  5
380
  8
BLATTANSICHT_1_GEOMETRIEAN
  6
VOLLINIE
 62
    18
 10
-5.019862918412178
 20
0.0
 30
0.0
 11
-4.898669166394263
 21
0.0
 31
0.0
  0
LINE
  5
381
  8
BLATTANSICHT_1_GEOMETRIEAN
  6
VOLLINIE
 62
    18
 10
-5.145033961496047
 20
0.0
 30
0.0
 11
-5.019862918412178
 21
0.0
 31
0.0
  0
LINE
  5
382
  8
BLATTANSICHT_1_GEOMETRIEAN
  6
VOLLINIE
 62
    18
 10
-5.273646296254473
 20
0.0
 30
0.0
 11
-5.145033961496047
 21
0.0
 31
0.0
  0
LINE
  5
383
  8
BLATTANSICHT_1_GEOMETRIEAN
  6
VOLLINIE
 62
    18
 10
-5.405149182764803
 20
0.0
 30
0.0
 11
-5.273646296254473
 21
0.0
 31
0.0
  0
LINE
  5
384
  8
BLATTANSICHT_1_GEOMETRIEAN
  6
VOLLINIE
 62
    18
 10
-5.538979505444204
 20
0.0
 30
0.0
 11
-5.405149182764803
 21
0.0
 31
0.0
  0
LINE
  5
385
  8
BLATTANSICHT_1_GEOMETRIEAN
  6
VOLLINIE
 62
    18
 10
-5.674564173790398
 20
0.0
 30
0.0
 11
-5.538979505444204
 21
0.0
 31
0.0
  0
LINE
  5
386
  8
BLATTANSICHT_1_GEOMETRIEAN
  6
VOLLINIE
 62
    18
 10
-5.811322601736852
 20
0.0
 30
0.0
 11
-5.674564173790398
 21
0.0
 31
0.0
  0
LINE
  5
387
  8
BLATTANSICHT_1_GEOMETRIEAN
  6
VOLLINIE
 62
    18
 10
-5.948669168736965
 20
-0.0000000000127011
 30
0.0
 11
-5.811322601736852
 21
0.0
 31
0.0
  0
LINE
  5
388
  8
BLATTANSICHT_1_GEOMETRIEAN
  6
VOLLINIE
 62
    18
 10
63.19532025973231
 20
0.0
 30
0.0
 11
63.541588125446
 21
0.0
 31
0.0
  0
LINE
  5
389
  8
BLATTANSICHT_1_GEOMETRIEAN
  6
VOLLINIE
 62
    18
 10
63.541588125446
 20
0.0
 30
0.0
 11
63.89921968004406
 21
0.0
 31
0.0
  0
LINE
  5
38A
  8
BLATTANSICHT_1_GEOMETRIEAN
  6
VOLLINIE
 62
    18
 10
62.86189885512421
 20
0.0
 30
0.0
 11
63.19532025973231
 21
0.0
 31
0.0
  0
LINE
  5
38B
  8
BLATTANSICHT_1_GEOMETRIEAN
  6
VOLLINIE
 62
    18
 10
60.20103093351774
 20
2.000000000833804
 30
0.0
 11
60.19532026248157
 21
1.3333333333206
 31
0.0
  0
LINE
  5
38C
  8
BLATTANSICHT_1_GEOMETRIEAN
  6
VOLLINIE
 62
    18
 10
60.19532026248157
 20
1.3333333333206
 30
0.0
 11
60.19532026248157
 21
0.666666666653938
 31
0.0
  0
LINE
  5
38D
  8
BLATTANSICHT_1_GEOMETRIEAN
  6
VOLLINIE
 62
    18
 10
60.19532026248157
 20
0.666666666653938
 30
0.0
 11
60.20103093347943
 21
0.0
 31
0.0
  0
LINE
  5
38E
  8
BLATTANSICHT_1_GEOMETRIEAN
  6
VOLLINIE
 62
    18
 10
60.24665109385936
 20
2.000000000833804
 30
0.0
 11
60.20103093351774
 21
2.000000000833804
 31
0.0
  0
LINE
  5
38F
  8
BLATTANSICHT_1_GEOMETRIEAN
  6
VOLLINIE
 62
    18
 10
60.33754421812695
 20
2.000000000833804
 30
0.0
 11
60.24665109385936
 21
2.000000000833804
 31
0.0
  0
LINE
  5
390
  8
BLATTANSICHT_1_GEOMETRIEAN
  6
VOLLINIE
 62
    18
 10
60.47301855476765
 20
2.000000000833804
 30
0.0
 11
60.33754421812695
 21
2.000000000833804
 31
0.0
  0
LINE
  5
391
  8
BLATTANSICHT_1_GEOMETRIEAN
  6
VOLLINIE
 62
    18
 10
60.65204306228602
 20
2.000000000833804
 30
0.0
 11
60.47301855476765
 21
2.000000000833804
 31
0.0
  0
LINE
  5
392
  8
BLATTANSICHT_1_GEOMETRIEAN
  6
VOLLINIE
 62
    18
 10
60.81408381079874
 20
2.000000000833804
 30
0.0
 11
60.65204306228602
 21
2.000000000833804
 31
0.0
  0
LINE
  5
393
  8
BLATTANSICHT_1_GEOMETRIEAN
  6
VOLLINIE
 62
    18
 10
60.99916784089099
 20
2.000000000833804
 30
0.0
 11
60.81408381079874
 21
2.000000000833804
 31
0.0
  0
LINE
  5
394
  8
BLATTANSICHT_1_GEOMETRIEAN
  6
VOLLINIE
 62
    18
 10
61.20650259429875
 20
2.000000000833804
 30
0.0
 11
60.99916784089099
 21
2.000000000833804
 31
0.0
  0
LINE
  5
395
  8
BLATTANSICHT_1_GEOMETRIEAN
  6
VOLLINIE
 62
    18
 10
63.54158812582111
 20
2.000000000833804
 30
0.0
 11
63.1953202601419
 21
2.000000000833804
 31
0.0
  0
LINE
  5
396
  8
BLATTANSICHT_1_GEOMETRIEAN
  6
VOLLINIE
 62
    18
 10
63.89921968037989
 20
2.000000000833804
 30
0.0
 11
63.54158812582111
 21
2.000000000833804
 31
0.0
  0
LINE
  5
397
  8
BLATTANSICHT_1_GEOMETRIEAN
  6
VOLLINIE
 62
    18
 10
63.1953202601419
 20
2.000000000833804
 30
0.0
 11
62.86189885556299
 21
2.000000000833804
 31
0.0
  0
LINE
  5
398
  8
BLATTANSICHT_1_GEOMETRIEAN
  6
VOLLINIE
 62
    18
 10
64.2666834829077
 20
2.000000000833804
 30
0.0
 11
63.89921968037989
 21
2.000000000833804
 31
0.0
  0
LINE
  5
399
  8
BLATTANSICHT_1_GEOMETRIEAN
  6
VOLLINIE
 62
    18
 10
64.64240600421343
 20
2.000000000833804
 30
0.0
 11
64.2666834829077
 21
2.000000000833804
 31
0.0
  0
LINE
  5
39A
  8
BLATTANSICHT_1_GEOMETRIEAN
  6
VOLLINIE
 62
    18
 10
65.02477834277997
 20
2.000000000833804
 30
0.0
 11
64.64240600421343
 21
2.000000000833804
 31
0.0
  0
LINE
  5
39B
  8
BLATTANSICHT_1_GEOMETRIEAN
  6
VOLLINIE
 62
    18
 10
65.41216311674802
 20
2.000000000833804
 30
0.0
 11
65.02477834277997
 21
2.000000000833804
 31
0.0
  0
LINE
  5
39C
  8
BLATTANSICHT_1_GEOMETRIEAN
  6
VOLLINIE
 62
    18
 10
65.80290148976519
 20
2.000000000833804
 30
0.0
 11
65.41216311674802
 21
2.000000000833804
 31
0.0
  0
LINE
  5
39D
  8
BLATTANSICHT_1_GEOMETRIEAN
  6
VOLLINIE
 62
    18
 10
66.1953202624816
 20
1.999999999987295
 30
0.0
 11
65.80290148976519
 21
2.000000000833804
 31
0.0
  0
LINE
  5
39E
  8
BLATTANSICHT_1_GEOMETRIEAN
  6
VOLLINIE
 62
    18
 10
63.89921968004406
 20
0.0
 30
0.0
 11
64.2666834826197
 21
0.0
 31
0.0
  0
LINE
  5
39F
  8
BLATTANSICHT_1_GEOMETRIEAN
  6
VOLLINIE
 62
    18
 10
64.2666834826197
 20
0.0
 30
0.0
 11
64.64240600397706
 21
0.0
 31
0.0
  0
LINE
  5
3A0
  8
BLATTANSICHT_1_GEOMETRIEAN
  6
VOLLINIE
 62
    18
 10
64.64240600397706
 20
0.0
 30
0.0
 11
65.02477834259822
 21
0.0
 31
0.0
  0
LINE
  5
3A1
  8
BLATTANSICHT_1_GEOMETRIEAN
  6
VOLLINIE
 62
    18
 10
65.02477834259822
 20
0.0
 30
0.0
 11
65.41216311662552
 21
0.0
 31
0.0
  0
LINE
  5
3A2
  8
BLATTANSICHT_1_GEOMETRIEAN
  6
VOLLINIE
 62
    18
 10
65.41216311662552
 20
0.0
 30
0.0
 11
65.80290148970356
 21
0.0
 31
0.0
  0
LINE
  5
3A3
  8
BLATTANSICHT_1_GEOMETRIEAN
  6
VOLLINIE
 62
    18
 10
65.80290148970356
 20
0.0
 30
0.0
 11
66.1953202624816
 21
-0.0000000000127011
 31
0.0
  0
LINE
  5
3A4
  8
BLATTANSICHT_1_GEOMETRIEAN
  6
VOLLINIE
 62
    18
 10
62.54275167795559
 20
0.0
 30
0.0
 11
62.86189885512421
 21
0.0
 31
0.0
  0
LINE
  5
3A5
  8
BLATTANSICHT_1_GEOMETRIEAN
  6
VOLLINIE
 62
    18
 10
62.23924536039238
 20
0.0
 30
0.0
 11
62.54275167795559
 21
0.0
 31
0.0
  0
LINE
  5
3A6
  8
BLATTANSICHT_1_GEOMETRIEAN
  6
VOLLINIE
 62
    18
 10
61.95267956309554
 20
0.0
 30
0.0
 11
62.23924536039238
 21
0.0
 31
0.0
  0
LINE
  5
3A7
  8
BLATTANSICHT_1_GEOMETRIEAN
  6
VOLLINIE
 62
    18
 10
62.86189885556299
 20
2.000000000833804
 30
0.0
 11
62.54275167841237
 21
2.000000000833804
 31
0.0
  0
LINE
  5
3A8
  8
BLATTANSICHT_1_GEOMETRIEAN
  6
VOLLINIE
 62
    18
 10
62.54275167841237
 20
2.000000000833804
 30
0.0
 11
62.23924536086131
 21
2.000000000833804
 31
0.0
  0
LINE
  5
3A9
  8
BLATTANSICHT_1_GEOMETRIEAN
  6
VOLLINIE
 62
    18
 10
62.23924536086131
 20
2.000000000833804
 30
0.0
 11
61.95267956357052
 21
2.000000000833804
 31
0.0
  0
LINE
  5
3AA
  8
BLATTANSICHT_1_GEOMETRIEAN
  6
VOLLINIE
 62
    18
 10
61.68428141202227
 20
0.0
 30
0.0
 11
61.95267956309554
 21
0.0
 31
0.0
  0
LINE
  5
3AB
  8
BLATTANSICHT_1_GEOMETRIEAN
  6
VOLLINIE
 62
    18
 10
61.43520022099307
 20
0.0
 30
0.0
 11
61.68428141202227
 21
0.0
 31
0.0
  0
LINE
  5
3AC
  8
BLATTANSICHT_1_GEOMETRIEAN
  6
VOLLINIE
 62
    18
 10
61.20650259385992
 20
0.0
 30
0.0
 11
61.43520022099307
 21
0.0
 31
0.0
  0
LINE
  5
3AD
  8
BLATTANSICHT_1_GEOMETRIEAN
  6
VOLLINIE
 62
    18
 10
61.95267956357052
 20
2.000000000833804
 30
0.0
 11
61.6842814124911
 21
2.000000000833804
 31
0.0
  0
LINE
  5
3AE
  8
BLATTANSICHT_1_GEOMETRIEAN
  6
VOLLINIE
 62
    18
 10
61.6842814124911
 20
2.000000000833804
 30
0.0
 11
61.43520022144991
 21
2.000000000833804
 31
0.0
  0
LINE
  5
3AF
  8
BLATTANSICHT_1_GEOMETRIEAN
  6
VOLLINIE
 62
    18
 10
61.43520022144991
 20
2.000000000833804
 30
0.0
 11
61.20650259429875
 21
2.000000000833804
 31
0.0
  0
LINE
  5
3B0
  8
BLATTANSICHT_1_GEOMETRIEAN
  6
VOLLINIE
 62
    18
 10
60.99916784048144
 20
0.0
 30
0.0
 11
61.20650259385992
 21
0.0
 31
0.0
  0
LINE
  5
3B1
  8
BLATTANSICHT_1_GEOMETRIEAN
  6
VOLLINIE
 62
    18
 10
60.81408381042348
 20
0.0
 30
0.0
 11
60.99916784048144
 21
0.0
 31
0.0
  0
LINE
  5
3B2
  8
BLATTANSICHT_1_GEOMETRIEAN
  6
VOLLINIE
 62
    18
 10
60.65204306195015
 20
0.0
 30
0.0
 11
60.81408381042348
 21
0.0
 31
0.0
  0
LINE
  5
3B3
  8
BLATTANSICHT_1_GEOMETRIEAN
  6
VOLLINIE
 62
    18
 10
60.24665109374475
 20
0.0
 30
0.0
 11
60.337544217937
 21
0.0
 31
0.0
  0
LINE
  5
3B4
  8
BLATTANSICHT_1_GEOMETRIEAN
  6
VOLLINIE
 62
    18
 10
60.337544217937
 20
0.0
 30
0.0
 11
60.4730185545037
 21
0.0
 31
0.0
  0
LINE
  5
3B5
  8
BLATTANSICHT_1_GEOMETRIEAN
  6
VOLLINIE
 62
    18
 10
60.20103093347943
 20
0.0
 30
0.0
 11
60.24665109374475
 21
0.0
 31
0.0
  0
LINE
  5
3B6
  8
BLATTANSICHT_1_GEOMETRIEAN
  6
VOLLINIE
 62
    18
 10
60.4730185545037
 20
0.0
 30
0.0
 11
60.65204306195015
 21
0.0
 31
0.0
  0
LINE
  5
3B7
  8
BLATTANSICHT_1_GEOMETRIEAN
  6
VOLLINIE
 62
    18
 10
66.25421741131954
 20
2.000000000833804
 30
0.0
 11
66.19532026271622
 21
2.000000000833804
 31
0.0
  0
LINE
  5
3B8
  8
BLATTANSICHT_1_GEOMETRIEAN
  6
VOLLINIE
 62
    18
 10
66.43044567447866
 20
2.000000000833804
 30
0.0
 11
66.25421741131954
 21
2.000000000833804
 31
0.0
  0
LINE
  5
3B9
  8
BLATTANSICHT_1_GEOMETRIEAN
  6
VOLLINIE
 62
    18
 10
66.60500995230727
 20
2.000000000833804
 30
0.0
 11
66.43044567447866
 21
2.000000000833804
 31
0.0
  0
LINE
  5
3BA
  8
BLATTANSICHT_1_GEOMETRIEAN
  6
VOLLINIE
 62
    18
 10
66.73884026689016
 20
2.000000000833804
 30
0.0
 11
66.60500995230727
 21
2.000000000833804
 31
0.0
  0
LINE
  5
3BB
  8
BLATTANSICHT_1_GEOMETRIEAN
  6
VOLLINIE
 62
    18
 10
66.87034314550515
 20
2.000000000833804
 30
0.0
 11
66.73884026689016
 21
2.000000000833804
 31
0.0
  0
LINE
  5
3BC
  8
BLATTANSICHT_1_GEOMETRIEAN
  6
VOLLINIE
 62
    18
 10
66.9989554726688
 20
2.000000000833804
 30
0.0
 11
66.87034314550515
 21
2.000000000833804
 31
0.0
  0
LINE
  5
3BD
  8
BLATTANSICHT_1_GEOMETRIEAN
  6
VOLLINIE
 62
    18
 10
67.12412650968267
 20
2.000000000833804
 30
0.0
 11
66.9989554726688
 21
2.000000000833804
 31
0.0
  0
LINE
  5
3BE
  8
BLATTANSICHT_1_GEOMETRIEAN
  6
VOLLINIE
 62
    18
 10
67.24532025604336
 20
2.000000000833804
 30
0.0
 11
67.12412650968267
 21
2.000000000833804
 31
0.0
  0
LINE
  5
3BF
  8
BLATTANSICHT_1_GEOMETRIEAN
  6
VOLLINIE
 62
    18
 10
67.36201774156028
 20
2.000000000833804
 30
0.0
 11
67.24532025604336
 21
2.000000000833804
 31
0.0
  0
LINE
  5
3C0
  8
BLATTANSICHT_1_GEOMETRIEAN
  6
VOLLINIE
 62
    18
 10
67.47371925921178
 20
2.000000000833804
 30
0.0
 11
67.36201774156028
 21
2.000000000833804
 31
0.0
  0
LINE
  5
3C1
  8
BLATTANSICHT_1_GEOMETRIEAN
  6
VOLLINIE
 62
    18
 10
67.57994647554135
 20
2.000000000833804
 30
0.0
 11
67.47371925921178
 21
2.000000000833804
 31
0.0
  0
LINE
  5
3C2
  8
BLATTANSICHT_1_GEOMETRIEAN
  6
VOLLINIE
 62
    18
 10
67.68024450925391
 20
2.000000000833804
 30
0.0
 11
67.57994647554135
 21
2.000000000833804
 31
0.0
  0
LINE
  5
3C3
  8
BLATTANSICHT_1_GEOMETRIEAN
  6
VOLLINIE
 62
    18
 10
67.77418386293378
 20
2.000000000833804
 30
0.0
 11
67.68024450925391
 21
2.000000000833804
 31
0.0
  0
LINE
  5
3C4
  8
BLATTANSICHT_1_GEOMETRIEAN
  6
VOLLINIE
 62
    18
 10
67.86136228046337
 20
2.000000000833804
 30
0.0
 11
67.77418386293378
 21
2.000000000833804
 31
0.0
  0
LINE
  5
3C5
  8
BLATTANSICHT_1_GEOMETRIEAN
  6
VOLLINIE
 62
    18
 10
67.94140645048452
 20
2.000000000833804
 30
0.0
 11
67.86136228046337
 21
2.000000000833804
 31
0.0
  0
LINE
  5
3C6
  8
BLATTANSICHT_1_GEOMETRIEAN
  6
VOLLINIE
 62
    18
 10
68.01397361351799
 20
2.000000000833804
 30
0.0
 11
67.94140645048452
 21
2.000000000833804
 31
0.0
  0
LINE
  5
3C7
  8
BLATTANSICHT_1_GEOMETRIEAN
  6
VOLLINIE
 62
    18
 10
68.07875302346368
 20
2.000000000833804
 30
0.0
 11
68.01397361351799
 21
2.000000000833804
 31
0.0
  0
LINE
  5
3C8
  8
BLATTANSICHT_1_GEOMETRIEAN
  6
VOLLINIE
 62
    18
 10
68.13546728493466
 20
2.000000000833804
 30
0.0
 11
68.07875302346368
 21
2.000000000833804
 31
0.0
  0
LINE
  5
3C9
  8
BLATTANSICHT_1_GEOMETRIEAN
  6
VOLLINIE
 62
    18
 10
68.18387353689879
 20
2.000000000833804
 30
0.0
 11
68.13546728493466
 21
2.000000000833804
 31
0.0
  0
LINE
  5
3CA
  8
BLATTANSICHT_1_GEOMETRIEAN
  6
VOLLINIE
 62
    18
 10
68.22376449891053
 20
2.000000000833804
 30
0.0
 11
68.18387353689879
 21
2.000000000833804
 31
0.0
  0
LINE
  5
3CB
  8
BLATTANSICHT_1_GEOMETRIEAN
  6
VOLLINIE
 62
    18
 10
68.25496935175536
 20
2.000000000833804
 30
0.0
 11
68.22376449891053
 21
2.000000000833804
 31
0.0
  0
LINE
  5
3CC
  8
BLATTANSICHT_1_GEOMETRIEAN
  6
VOLLINIE
 62
    18
 10
68.27735447205308
 20
2.000000000833804
 30
0.0
 11
68.25496935175536
 21
2.000000000833804
 31
0.0
  0
LINE
  5
3CD
  8
BLATTANSICHT_1_GEOMETRIEAN
  6
VOLLINIE
 62
    18
 10
68.29082400212457
 20
2.000000000833804
 30
0.0
 11
68.27735447205308
 21
2.000000000833804
 31
0.0
  0
LINE
  5
3CE
  8
BLATTANSICHT_1_GEOMETRIEAN
  6
VOLLINIE
 62
    18
 10
89.16687602771745
 20
2.000000000833804
 30
0.0
 11
89.1356711749236
 21
2.000000000833804
 31
0.0
  0
LINE
  5
3CF
  8
BLATTANSICHT_1_GEOMETRIEAN
  6
VOLLINIE
 62
    18
 10
89.2067669896645
 20
2.000000000833804
 30
0.0
 11
89.16687602771745
 21
2.000000000833804
 31
0.0
  0
LINE
  5
3D0
  8
BLATTANSICHT_1_GEOMETRIEAN
  6
VOLLINIE
 62
    18
 10
89.25517324155096
 20
2.000000000833804
 30
0.0
 11
89.2067669896645
 21
2.000000000833804
 31
0.0
  0
LINE
  5
3D1
  8
BLATTANSICHT_1_GEOMETRIEAN
  6
VOLLINIE
 62
    18
 10
89.31188750293582
 20
2.000000000833804
 30
0.0
 11
89.25517324155096
 21
2.000000000833804
 31
0.0
  0
LINE
  5
3D2
  8
BLATTANSICHT_1_GEOMETRIEAN
  6
VOLLINIE
 62
    18
 10
89.37666691278481
 20
2.000000000833804
 30
0.0
 11
89.31188750293582
 21
2.000000000833804
 31
0.0
  0
LINE
  5
3D3
  8
BLATTANSICHT_1_GEOMETRIEAN
  6
VOLLINIE
 62
    18
 10
89.44923407571181
 20
2.000000000833804
 30
0.0
 11
89.37666691278481
 21
2.000000000833804
 31
0.0
  0
LINE
  5
3D4
  8
BLATTANSICHT_1_GEOMETRIEAN
  6
VOLLINIE
 62
    18
 10
89.5292782456254
 20
2.000000000833804
 30
0.0
 11
89.44923407571181
 21
2.000000000833804
 31
0.0
  0
LINE
  5
3D5
  8
BLATTANSICHT_1_GEOMETRIEAN
  6
VOLLINIE
 62
    18
 10
89.61645666304086
 20
2.000000000833804
 30
0.0
 11
89.5292782456254
 21
2.000000000833804
 31
0.0
  0
LINE
  5
3D6
  8
BLATTANSICHT_1_GEOMETRIEAN
  6
VOLLINIE
 62
    18
 10
89.71039601660108
 20
2.000000000833804
 30
0.0
 11
89.61645666304086
 21
2.000000000833804
 31
0.0
  0
LINE
  5
3D7
  8
BLATTANSICHT_1_GEOMETRIEAN
  6
VOLLINIE
 62
    18
 10
89.81069405020172
 20
2.000000000833804
 30
0.0
 11
89.71039601660108
 21
2.000000000833804
 31
0.0
  0
LINE
  5
3D8
  8
BLATTANSICHT_1_GEOMETRIEAN
  6
VOLLINIE
 62
    18
 10
89.91692126641718
 20
2.000000000833804
 30
0.0
 11
89.81069405020172
 21
2.000000000833804
 31
0.0
  0
LINE
  5
3D9
  8
BLATTANSICHT_1_GEOMETRIEAN
  6
VOLLINIE
 62
    18
 10
90.02862278395344
 20
2.000000000833804
 30
0.0
 11
89.91692126641718
 21
2.000000000833804
 31
0.0
  0
LINE
  5
3DA
  8
BLATTANSICHT_1_GEOMETRIEAN
  6
VOLLINIE
 62
    18
 10
90.14532026937154
 20
2.000000000833804
 30
0.0
 11
90.02862278395344
 21
2.000000000833804
 31
0.0
  0
LINE
  5
3DB
  8
BLATTANSICHT_1_GEOMETRIEAN
  6
VOLLINIE
 62
    18
 10
90.26651401563554
 20
2.000000000833804
 30
0.0
 11
90.14532026937154
 21
2.000000000833804
 31
0.0
  0
LINE
  5
3DC
  8
BLATTANSICHT_1_GEOMETRIEAN
  6
VOLLINIE
 62
    18
 10
90.3916850525556
 20
2.000000000833804
 30
0.0
 11
90.26651401563554
 21
2.000000000833804
 31
0.0
  0
LINE
  5
3DD
  8
BLATTANSICHT_1_GEOMETRIEAN
  6
VOLLINIE
 62
    18
 10
90.52029737964924
 20
2.000000000833804
 30
0.0
 11
90.3916850525556
 21
2.000000000833804
 31
0.0
  0
LINE
  5
3DE
  8
BLATTANSICHT_1_GEOMETRIEAN
  6
VOLLINIE
 62
    18
 10
90.6518002581996
 20
2.000000000833804
 30
0.0
 11
90.52029737964924
 21
2.000000000833804
 31
0.0
  0
LINE
  5
3DF
  8
BLATTANSICHT_1_GEOMETRIEAN
  6
VOLLINIE
 62
    18
 10
90.7856305727238
 20
2.000000000833804
 30
0.0
 11
90.6518002581996
 21
2.000000000833804
 31
0.0
  0
LINE
  5
3E0
  8
BLATTANSICHT_1_GEOMETRIEAN
  6
VOLLINIE
 62
    18
 10
90.9601948505442
 20
2.000000000833804
 30
0.0
 11
90.7856305727238
 21
2.000000000833804
 31
0.0
  0
LINE
  5
3E1
  8
BLATTANSICHT_1_GEOMETRIEAN
  6
VOLLINIE
 62
    18
 10
91.13642311370761
 20
2.000000000833804
 30
0.0
 11
90.9601948505442
 21
2.000000000833804
 31
0.0
  0
LINE
  5
3E2
  8
BLATTANSICHT_1_GEOMETRIEAN
  6
VOLLINIE
 62
    18
 10
91.19532026017343
 20
2.000000000833804
 30
0.0
 11
91.13642311370761
 21
2.000000000833804
 31
0.0
  0
LINE
  5
3E3
  8
BLATTANSICHT_1_GEOMETRIEAN
  6
VOLLINIE
 62
    18
 10
93.29082400115611
 20
0.0
 30
0.0
 11
93.29532026248158
 21
-0.0000000000127011
 31
0.0
  0
LINE
  5
3E4
  8
BLATTANSICHT_1_GEOMETRIEAN
  6
VOLLINIE
 62
    18
 10
93.2773544710291
 20
0.0
 30
0.0
 11
93.29082400115611
 21
0.0
 31
0.0
  0
LINE
  5
3E5
  8
BLATTANSICHT_1_GEOMETRIEAN
  6
VOLLINIE
 62
    18
 10
93.16552206717115
 20
0.0
 30
0.0
 11
93.21647625826681
 21
0.0
 31
0.0
  0
LINE
  5
3E6
  8
BLATTANSICHT_1_GEOMETRIEAN
  6
VOLLINIE
 62
    18
 10
92.12412651454325
 20
0.0
 30
0.0
 11
92.245320269808
 21
0.0
 31
0.0
  0
LINE
  5
3E7
  8
BLATTANSICHT_1_GEOMETRIEAN
  6
VOLLINIE
 62
    18
 10
89.1356711749236
 20
2.000000000833804
 30
0.0
 11
89.11328605462603
 21
2.000000000833804
 31
0.0
  0
LINE
  5
3E8
  8
BLATTANSICHT_1_GEOMETRIEAN
  6
VOLLINIE
 62
    18
 10
89.11328605462603
 20
2.000000000833804
 30
0.0
 11
89.0998165245772
 21
2.000000000833804
 31
0.0
  0
LINE
  5
3E9
  8
BLATTANSICHT_1_GEOMETRIEAN
  6
VOLLINIE
 62
    18
 10
68.69532026248157
 20
9.999999999987303
 30
0.0
 11
68.69532026248157
 21
8.273633973987307
 31
0.0
  0
LINE
  5
3EA
  8
BLATTANSICHT_1_GEOMETRIEAN
  6
VOLLINIE
 62
    18
 10
88.69532026248159
 20
9.999999999987303
 30
0.0
 11
68.69532026248157
 21
9.999999999987303
 31
0.0
  0
LINE
  5
3EB
  8
BLATTANSICHT_1_GEOMETRIEAN
  6
VOLLINIE
 62
    18
 10
88.69532026248159
 20
8.273633973987307
 30
0.0
 11
88.69532026248159
 21
9.999999999987303
 31
0.0
  0
LINE
  5
3EC
  8
BLATTANSICHT_1_GEOMETRIEAN
  6
VOLLINIE
 62
    18
 10
68.69532026248157
 20
8.273633973987307
 30
0.0
 11
68.69532026248157
 21
6.657957533032724
 31
0.0
  0
LINE
  5
3ED
  8
BLATTANSICHT_1_GEOMETRIEAN
  6
VOLLINIE
 62
    18
 10
88.69532026248159
 20
8.273633973987307
 30
0.0
 11
68.69532026248157
 21
8.273633973987307
 31
0.0
  0
LINE
  5
3EE
  8
BLATTANSICHT_1_GEOMETRIEAN
  6
VOLLINIE
 62
    18
 10
88.69532026248159
 20
6.657957533032724
 30
0.0
 11
88.69532026248159
 21
8.273633973987307
 31
0.0
  0
LINE
  5
3EF
  8
BLATTANSICHT_1_GEOMETRIEAN
  6
VOLLINIE
 62
    18
 10
88.6953202633154
 20
3.290702784027157
 30
0.0
 11
88.6953202633154
 21
3.478889359127733
 31
0.0
  0
LINE
  5
3F0
  8
BLATTANSICHT_1_GEOMETRIEAN
  6
VOLLINIE
 62
    18
 10
88.6953202633154
 20
3.111074419524802
 30
0.0
 11
88.6953202633154
 21
3.290702784027157
 31
0.0
  0
LINE
  5
3F1
  8
BLATTANSICHT_1_GEOMETRIEAN
  6
VOLLINIE
 62
    18
 10
88.6953202633154
 20
3.478889359127733
 30
0.0
 11
88.6953202633154
 21
3.674302346225539
 31
0.0
  0
LINE
  5
3F2
  8
BLATTANSICHT_1_GEOMETRIEAN
  6
VOLLINIE
 62
    18
 10
88.6953202633154
 20
3.674302346225539
 30
0.0
 11
88.6953202633154
 21
3.875558805317157
 31
0.0
  0
LINE
  5
3F3
  8
BLATTANSICHT_1_GEOMETRIEAN
  6
VOLLINIE
 62
    18
 10
88.6953202633154
 20
3.875558805317157
 30
0.0
 11
88.6953202633154
 21
4.081234442079212
 31
0.0
  0
LINE
  5
3F4
  8
BLATTANSICHT_1_GEOMETRIEAN
  6
VOLLINIE
 62
    18
 10
88.6953202633154
 20
4.081234442079212
 30
0.0
 11
88.6953202633154
 21
4.289873687616164
 31
0.0
  0
LINE
  5
3F5
  8
BLATTANSICHT_1_GEOMETRIEAN
  6
VOLLINIE
 62
    18
 10
88.6953202633154
 20
4.289873687616164
 30
0.0
 11
88.69532026248159
 21
4.499999999987291
 31
0.0
  0
LINE
  5
3F6
  8
BLATTANSICHT_1_GEOMETRIEAN
  6
VOLLINIE
 62
    18
 10
88.6953202633154
 20
2.978096427082245
 30
0.0
 11
88.6953202633154
 21
3.111074419524802
 31
0.0
  0
LINE
  5
3F7
  8
BLATTANSICHT_1_GEOMETRIEAN
  6
VOLLINIE
 62
    18
 10
88.6953202633154
 20
2.851635459631712
 30
0.0
 11
88.6953202633154
 21
2.978096427082245
 31
0.0
  0
LINE
  5
3F8
  8
BLATTANSICHT_1_GEOMETRIEAN
  6
VOLLINIE
 62
    18
 10
88.6953202633154
 20
2.732233042470552
 30
0.0
 11
88.6953202633154
 21
2.851635459631712
 31
0.0
  0
LINE
  5
3F9
  8
BLATTANSICHT_1_GEOMETRIEAN
  6
VOLLINIE
 62
    18
 10
88.6953202633154
 20
2.620400477925389
 30
0.0
 11
88.6953202633154
 21
2.732233042470552
 31
0.0
  0
LINE
  5
3FA
  8
BLATTANSICHT_1_GEOMETRIEAN
  6
VOLLINIE
 62
    18
 10
88.6953202633154
 20
2.516616646976373
 30
0.0
 11
88.6953202633154
 21
2.620400477925389
 31
0.0
  0
LINE
  5
3FB
  8
BLATTANSICHT_1_GEOMETRIEAN
  6
VOLLINIE
 62
    18
 10
88.6953202633154
 20
2.421325967914057
 30
0.0
 11
88.6953202633154
 21
2.516616646976373
 31
0.0
  0
LINE
  5
3FC
  8
BLATTANSICHT_1_GEOMETRIEAN
  6
VOLLINIE
 62
    18
 10
88.6953202633154
 20
2.3187599815899
 30
0.0
 11
88.6953202633154
 21
2.421325967914057
 31
0.0
  0
LINE
  5
3FD
  8
BLATTANSICHT_1_GEOMETRIEAN
  6
VOLLINIE
 62
    18
 10
88.6953202633154
 20
2.229642065225326
 30
0.0
 11
88.6953202633154
 21
2.3187599815899
 31
0.0
  0
LINE
  5
3FE
  8
BLATTANSICHT_1_GEOMETRIEAN
  6
VOLLINIE
 62
    18
 10
88.6953202633154
 20
2.154521660405558
 30
0.0
 11
88.6953202633154
 21
2.229642065225326
 31
0.0
  0
LINE
  5
3FF
  8
BLATTANSICHT_1_GEOMETRIEAN
  6
VOLLINIE
 62
    18
 10
88.6953202633154
 20
2.09386190940306
 30
0.0
 11
88.6953202633154
 21
2.154521660405558
 31
0.0
  0
LINE
  5
400
  8
BLATTANSICHT_1_GEOMETRIEAN
  6
VOLLINIE
 62
    18
 10
88.6953202633154
 20
2.048036799751557
 30
0.0
 11
88.6953202633154
 21
2.09386190940306
 31
0.0
  0
LINE
  5
401
  8
BLATTANSICHT_1_GEOMETRIEAN
  6
VOLLINIE
 62
    18
 10
88.6953202633154
 20
2.021387847331408
 30
0.0
 11
88.6953202633154
 21
2.048036799751557
 31
0.0
  0
LINE
  5
402
  8
BLATTANSICHT_1_GEOMETRIEAN
  6
VOLLINIE
 62
    18
 10
88.6953202633154
 20
2.005352692698375
 30
0.0
 11
88.6953202633154
 21
2.021387847331408
 31
0.0
  0
LINE
  5
403
  8
BLATTANSICHT_1_GEOMETRIEAN
  6
VOLLINIE
 62
    18
 10
88.69532026248159
 20
1.999999999987295
 30
0.0
 11
88.6953202633154
 21
2.005352692698375
 31
0.0
  0
LINE
  5
404
  8
BLATTANSICHT_1_GEOMETRIEAN
  6
VOLLINIE
 62
    18
 10
68.69532026248157
 20
2.005352691842797
 30
0.0
 11
68.69532026248157
 21
1.999999999987295
 31
0.0
  0
LINE
  5
405
  8
BLATTANSICHT_1_GEOMETRIEAN
  6
VOLLINIE
 62
    18
 10
68.69532026248157
 20
2.021387846486772
 30
0.0
 11
68.69532026248157
 21
2.005352691842797
 31
0.0
  0
LINE
  5
406
  8
BLATTANSICHT_1_GEOMETRIEAN
  6
VOLLINIE
 62
    18
 10
68.69532026248157
 20
2.048036798925058
 30
0.0
 11
68.69532026248157
 21
2.021387846486772
 31
0.0
  0
LINE
  5
407
  8
BLATTANSICHT_1_GEOMETRIEAN
  6
VOLLINIE
 62
    18
 10
68.69532026248157
 20
2.09386190860616
 30
0.0
 11
68.69532026248157
 21
2.048036798925058
 31
0.0
  0
LINE
  5
408
  8
BLATTANSICHT_1_GEOMETRIEAN
  6
VOLLINIE
 62
    18
 10
68.69532026248157
 20
2.154521659647235
 30
0.0
 11
68.69532026248157
 21
2.09386190860616
 31
0.0
  0
LINE
  5
409
  8
BLATTANSICHT_1_GEOMETRIEAN
  6
VOLLINIE
 62
    18
 10
68.69532026248157
 20
2.229642064514085
 30
0.0
 11
68.69532026248157
 21
2.154521659647235
 31
0.0
  0
LINE
  5
40A
  8
BLATTANSICHT_1_GEOMETRIEAN
  6
VOLLINIE
 62
    18
 10
68.69532026248157
 20
2.31875998093366
 30
0.0
 11
68.69532026248157
 21
2.229642064514085
 31
0.0
  0
LINE
  5
40B
  8
BLATTANSICHT_1_GEOMETRIEAN
  6
VOLLINIE
 62
    18
 10
68.69532026248157
 20
2.421325967320014
 30
0.0
 11
68.69532026248157
 21
2.31875998093366
 31
0.0
  0
LINE
  5
40C
  8
BLATTANSICHT_1_GEOMETRIEAN
  6
VOLLINIE
 62
    18
 10
68.69532026248157
 20
2.516616646434172
 30
0.0
 11
68.69532026248157
 21
2.421325967320014
 31
0.0
  0
LINE
  5
40D
  8
BLATTANSICHT_1_GEOMETRIEAN
  6
VOLLINIE
 62
    18
 10
68.69532026248157
 20
2.620400477438143
 30
0.0
 11
68.69532026248157
 21
2.516616646434172
 31
0.0
  0
LINE
  5
40E
  8
BLATTANSICHT_1_GEOMETRIEAN
  6
VOLLINIE
 62
    18
 10
68.69532026248157
 20
2.732233042040924
 30
0.0
 11
68.69532026248157
 21
2.620400477438143
 31
0.0
  0
LINE
  5
40F
  8
BLATTANSICHT_1_GEOMETRIEAN
  6
VOLLINIE
 62
    18
 10
68.69532026248157
 20
2.851635459256048
 30
0.0
 11
68.69532026248157
 21
2.732233042040924
 31
0.0
  0
LINE
  5
410
  8
BLATTANSICHT_1_GEOMETRIEAN
  6
VOLLINIE
 62
    18
 10
68.69532026248157
 20
2.978096426761581
 30
0.0
 11
68.69532026248157
 21
2.851635459256048
 31
0.0
  0
LINE
  5
411
  8
BLATTANSICHT_1_GEOMETRIEAN
  6
VOLLINIE
 62
    18
 10
68.69532026248157
 20
3.11107441925959
 30
0.0
 11
68.69532026248157
 21
2.978096426761581
 31
0.0
  0
LINE
  5
412
  8
BLATTANSICHT_1_GEOMETRIEAN
  6
VOLLINIE
 62
    18
 10
68.69532026248157
 20
3.290702783811329
 30
0.0
 11
68.69532026248157
 21
3.11107441925959
 31
0.0
  0
LINE
  5
413
  8
BLATTANSICHT_1_GEOMETRIEAN
  6
VOLLINIE
 62
    18
 10
68.69532026248157
 20
3.478889358958377
 30
0.0
 11
68.69532026248157
 21
3.290702783811329
 31
0.0
  0
LINE
  5
414
  8
BLATTANSICHT_1_GEOMETRIEAN
  6
VOLLINIE
 62
    18
 10
68.69532026248157
 20
3.674302346099204
 30
0.0
 11
68.69532026248157
 21
3.478889358958377
 31
0.0
  0
LINE
  5
415
  8
BLATTANSICHT_1_GEOMETRIEAN
  6
VOLLINIE
 62
    18
 10
68.69532026248157
 20
3.875558805229806
 30
0.0
 11
68.69532026248157
 21
3.674302346099204
 31
0.0
  0
LINE
  5
416
  8
BLATTANSICHT_1_GEOMETRIEAN
  6
VOLLINIE
 62
    18
 10
68.69532026248157
 20
4.081234442026286
 30
0.0
 11
68.69532026248157
 21
3.875558805229806
 31
0.0
  0
LINE
  5
417
  8
BLATTANSICHT_1_GEOMETRIEAN
  6
VOLLINIE
 62
    18
 10
68.69532026248157
 20
4.289873687592522
 30
0.0
 11
68.69532026248157
 21
4.081234442026286
 31
0.0
  0
LINE
  5
418
  8
BLATTANSICHT_1_GEOMETRIEAN
  6
VOLLINIE
 62
    18
 10
68.69532026248157
 20
4.499999999987291
 30
0.0
 11
68.69532026248157
 21
4.289873687592522
 31
0.0
  0
LINE
  5
419
  8
BLATTANSICHT_1_GEOMETRIEAN
  6
VOLLINIE
 62
    18
 10
91.19532026017343
 20
1.999999999987295
 30
0.0
 11
66.1953202624816
 21
1.999999999987295
 31
0.0
  0
LINE
  5
41A
  8
BLATTANSICHT_1_GEOMETRIEAN
  6
VOLLINIE
 62
    18
 10
66.1953202624816
 20
1.999999999987295
 30
0.0
 11
66.1953202624816
 21
-0.0000000000127011
 31
0.0
  0
LINE
  5
41B
  8
BLATTANSICHT_1_GEOMETRIEAN
  6
VOLLINIE
 62
    18
 10
66.1953202624816
 20
-0.0000000000127011
 30
0.0
 11
91.19532026017343
 21
-0.0000000000127011
 31
0.0
  0
LINE
  5
41C
  8
BLATTANSICHT_1_GEOMETRIEAN
  6
VOLLINIE
 62
    18
 10
88.6953202633154
 20
6.407514203762323
 30
0.0
 11
88.6953202633154
 21
6.540416660539048
 31
0.0
  0
LINE
  5
41D
  8
BLATTANSICHT_1_GEOMETRIEAN
  6
VOLLINIE
 62
    18
 10
88.6953202633154
 20
6.26025073898402
 30
0.0
 11
88.6953202633154
 21
6.407514203762323
 31
0.0
  0
LINE
  5
41E
  8
BLATTANSICHT_1_GEOMETRIEAN
  6
VOLLINIE
 62
    18
 10
88.6953202633154
 20
6.540416660539048
 30
0.0
 11
88.69532026248159
 21
6.657957533032724
 31
0.0
  0
LINE
  5
41F
  8
BLATTANSICHT_1_GEOMETRIEAN
  6
VOLLINIE
 62
    18
 10
88.6953202633154
 20
6.099734965270664
 30
0.0
 11
88.6953202633154
 21
6.26025073898402
 31
0.0
  0
LINE
  5
420
  8
BLATTANSICHT_1_GEOMETRIEAN
  6
VOLLINIE
 62
    18
 10
88.6953202633154
 20
5.92717534647378
 30
0.0
 11
88.6953202633154
 21
6.099734965270664
 31
0.0
  0
LINE
  5
421
  8
BLATTANSICHT_1_GEOMETRIEAN
  6
VOLLINIE
 62
    18
 10
88.6953202633154
 20
5.743871023614711
 30
0.0
 11
88.6953202633154
 21
5.92717534647378
 31
0.0
  0
LINE
  5
422
  8
BLATTANSICHT_1_GEOMETRIEAN
  6
VOLLINIE
 62
    18
 10
88.6953202633154
 20
5.551202026930611
 30
0.0
 11
88.6953202633154
 21
5.743871023614711
 31
0.0
  0
LINE
  5
423
  8
BLATTANSICHT_1_GEOMETRIEAN
  6
VOLLINIE
 62
    18
 10
88.6953202633154
 20
5.35061889750608
 30
0.0
 11
88.6953202633154
 21
5.551202026930611
 31
0.0
  0
LINE
  5
424
  8
BLATTANSICHT_1_GEOMETRIEAN
  6
VOLLINIE
 62
    18
 10
88.6953202633154
 20
5.143631755633312
 30
0.0
 11
88.6953202633154
 21
5.35061889750608
 31
0.0
  0
LINE
  5
425
  8
BLATTANSICHT_1_GEOMETRIEAN
  6
VOLLINIE
 62
    18
 10
88.6953202633154
 20
4.93179893705528
 30
0.0
 11
88.6953202633154
 21
5.143631755633312
 31
0.0
  0
LINE
  5
426
  8
BLATTANSICHT_1_GEOMETRIEAN
  6
VOLLINIE
 62
    18
 10
88.6953202633154
 20
4.716715255221287
 30
0.0
 11
88.6953202633154
 21
4.93179893705528
 31
0.0
  0
LINE
  5
427
  8
BLATTANSICHT_1_GEOMETRIEAN
  6
VOLLINIE
 62
    18
 10
88.69532026248159
 20
4.499999999987291
 30
0.0
 11
88.6953202633154
 21
4.716715255221287
 31
0.0
  0
LINE
  5
428
  8
BLATTANSICHT_1_GEOMETRIEAN
  6
VOLLINIE
 62
    18
 10
68.69532026248157
 20
4.499999999987291
 30
0.0
 11
88.69532026248159
 21
4.499999999987291
 31
0.0
  0
LINE
  5
429
  8
BLATTANSICHT_1_GEOMETRIEAN
  6
VOLLINIE
 62
    18
 10
68.69532026248157
 20
4.716715255229341
 30
0.0
 11
68.69532026248157
 21
4.499999999987291
 31
0.0
  0
LINE
  5
42A
  8
BLATTANSICHT_1_GEOMETRIEAN
  6
VOLLINIE
 62
    18
 10
68.69532026248157
 20
4.931798937069447
 30
0.0
 11
68.69532026248157
 21
4.716715255229341
 31
0.0
  0
LINE
  5
42B
  8
BLATTANSICHT_1_GEOMETRIEAN
  6
VOLLINIE
 62
    18
 10
68.69532026248157
 20
5.143631755651404
 30
0.0
 11
68.69532026248157
 21
4.931798937069447
 31
0.0
  0
LINE
  5
42C
  8
BLATTANSICHT_1_GEOMETRIEAN
  6
VOLLINIE
 62
    18
 10
68.69532026248157
 20
5.35061889752018
 30
0.0
 11
68.69532026248157
 21
5.143631755651404
 31
0.0
  0
LINE
  5
42D
  8
BLATTANSICHT_1_GEOMETRIEAN
  6
VOLLINIE
 62
    18
 10
68.69532026248157
 20
5.551202026938688
 30
0.0
 11
68.69532026248157
 21
5.35061889752018
 31
0.0
  0
LINE
  5
42E
  8
BLATTANSICHT_1_GEOMETRIEAN
  6
VOLLINIE
 62
    18
 10
68.69532026248157
 20
5.743871023614688
 30
0.0
 11
68.69532026248157
 21
5.551202026938688
 31
0.0
  0
LINE
  5
42F
  8
BLATTANSICHT_1_GEOMETRIEAN
  6
VOLLINIE
 62
    18
 10
68.69532026248157
 20
5.927175346458575
 30
0.0
 11
68.69532026248157
 21
5.743871023614688
 31
0.0
  0
LINE
  5
430
  8
BLATTANSICHT_1_GEOMETRIEAN
  6
VOLLINIE
 62
    18
 10
68.69532026248157
 20
6.099734965238945
 30
0.0
 11
68.69532026248157
 21
5.927175346458575
 31
0.0
  0
LINE
  5
431
  8
BLATTANSICHT_1_GEOMETRIEAN
  6
VOLLINIE
 62
    18
 10
68.69532026248157
 20
6.26025073893457
 30
0.0
 11
68.69532026248157
 21
6.099734965238945
 31
0.0
  0
LINE
  5
432
  8
BLATTANSICHT_1_GEOMETRIEAN
  6
VOLLINIE
 62
    18
 10
68.69532026248157
 20
6.407514203690267
 30
0.0
 11
68.69532026248157
 21
6.26025073893457
 31
0.0
  0
LINE
  5
433
  8
BLATTANSICHT_1_GEOMETRIEAN
  6
VOLLINIE
 62
    18
 10
68.69532026248157
 20
6.540416660444365
 30
0.0
 11
68.69532026248157
 21
6.407514203690267
 31
0.0
  0
LINE
  5
434
  8
BLATTANSICHT_1_GEOMETRIEAN
  6
VOLLINIE
 62
    18
 10
68.69532026248157
 20
6.657957533032724
 30
0.0
 11
68.69532026248157
 21
6.540416660444365
 31
0.0
  0
LINE
  5
435
  8
BLATTANSICHT_1_GEOMETRIEAN
  6
VOLLINIE
 62
    18
 10
88.69532026248159
 20
6.657957533032724
 30
0.0
 11
68.69532026248157
 21
6.657957533032724
 31
0.0
  0
LINE
  5
436
  8
BLATTANSICHT_1_GEOMETRIEAN
  6
VOLLINIE
 62
    18
 10
91.19532026017343
 20
1.999999999987295
 30
0.0
 11
91.19532026017343
 21
-0.0000000000127011
 31
0.0
  0
LINE
  5
437
  8
BLATTANSICHT_1_GEOMETRIEAN
  6
VOLLINIE
 62
    18
 10
91.58773903213671
 20
2.000000000833804
 30
0.0
 11
91.19532026017343
 21
1.999999999987295
 31
0.0
  0
LINE
  5
438
  8
BLATTANSICHT_1_GEOMETRIEAN
  6
VOLLINIE
 62
    18
 10
91.97847740671217
 20
2.000000000833804
 30
0.0
 11
91.58773903213671
 21
2.000000000833804
 31
0.0
  0
LINE
  5
439
  8
BLATTANSICHT_1_GEOMETRIEAN
  6
VOLLINIE
 62
    18
 10
92.36586218222192
 20
2.000000000833804
 30
0.0
 11
91.97847740671217
 21
2.000000000833804
 31
0.0
  0
LINE
  5
43A
  8
BLATTANSICHT_1_GEOMETRIEAN
  6
VOLLINIE
 62
    18
 10
91.19532026017343
 20
-0.0000000000127011
 30
0.0
 11
91.58773903213414
 21
0.0
 31
0.0
  0
LINE
  5
43B
  8
BLATTANSICHT_1_GEOMETRIEAN
  6
VOLLINIE
 62
    18
 10
91.58773903213414
 20
0.0
 30
0.0
 11
91.9784774067073
 21
0.0
 31
0.0
  0
LINE
  5
43C
  8
BLATTANSICHT_1_GEOMETRIEAN
  6
VOLLINIE
 62
    18
 10
91.9784774067073
 20
0.0
 30
0.0
 11
92.36586218221497
 21
0.0
 31
0.0
  0
LINE
  5
43D
  8
BLATTANSICHT_1_GEOMETRIEAN
  6
VOLLINIE
 62
    18
 10
92.74823452081701
 20
2.000000000833804
 30
0.0
 11
92.36586218222192
 21
2.000000000833804
 31
0.0
  0
LINE
  5
43E
  8
BLATTANSICHT_1_GEOMETRIEAN
  6
VOLLINIE
 62
    18
 10
93.12395704215379
 20
2.000000000833804
 30
0.0
 11
92.74823452081701
 21
2.000000000833804
 31
0.0
  0
LINE
  5
43F
  8
BLATTANSICHT_1_GEOMETRIEAN
  6
VOLLINIE
 62
    18
 10
93.49142084471481
 20
2.000000000833804
 30
0.0
 11
93.12395704215379
 21
2.000000000833804
 31
0.0
  0
LINE
  5
440
  8
BLATTANSICHT_1_GEOMETRIEAN
  6
VOLLINIE
 62
    18
 10
92.36586218221497
 20
0.0
 30
0.0
 11
92.74823452080894
 21
0.0
 31
0.0
  0
LINE
  5
441
  8
BLATTANSICHT_1_GEOMETRIEAN
  6
VOLLINIE
 62
    18
 10
93.1239570421449
 20
0.0
 30
0.0
 11
93.49142084470542
 21
0.0
 31
0.0
  0
LINE
  5
442
  8
BLATTANSICHT_1_GEOMETRIEAN
  6
VOLLINIE
 62
    18
 10
92.74823452080894
 20
0.0
 30
0.0
 11
93.1239570421449
 21
0.0
 31
0.0
  0
LINE
  5
443
  8
BLATTANSICHT_1_GEOMETRIEAN
  6
VOLLINIE
 62
    18
 10
94.52874166966453
 20
2.000000000833804
 30
0.0
 11
94.19532026504055
 21
2.000000000833804
 31
0.0
  0
LINE
  5
444
  8
BLATTANSICHT_1_GEOMETRIEAN
  6
VOLLINIE
 62
    18
 10
93.84905239931693
 20
2.000000000833804
 30
0.0
 11
93.49142084471481
 21
2.000000000833804
 31
0.0
  0
LINE
  5
445
  8
BLATTANSICHT_1_GEOMETRIEAN
  6
VOLLINIE
 62
    18
 10
94.19532026504055
 20
2.000000000833804
 30
0.0
 11
93.84905239931693
 21
2.000000000833804
 31
0.0
  0
LINE
  5
446
  8
BLATTANSICHT_1_GEOMETRIEAN
  6
VOLLINIE
 62
    18
 10
95.15139516446904
 20
2.000000000833804
 30
0.0
 11
94.84788884686695
 21
2.000000000833804
 31
0.0
  0
LINE
  5
447
  8
BLATTANSICHT_1_GEOMETRIEAN
  6
VOLLINIE
 62
    18
 10
95.43796096180964
 20
2.000000000833804
 30
0.0
 11
95.15139516446904
 21
2.000000000833804
 31
0.0
  0
LINE
  5
448
  8
BLATTANSICHT_1_GEOMETRIEAN
  6
VOLLINIE
 62
    18
 10
94.84788884686695
 20
2.000000000833804
 30
0.0
 11
94.52874166966453
 21
2.000000000833804
 31
0.0
  0
LINE
  5
449
  8
BLATTANSICHT_1_GEOMETRIEAN
  6
VOLLINIE
 62
    18
 10
97.02953978677489
 20
2.000000000833804
 30
0.0
 11
96.90165936386724
 21
2.000000000833804
 31
0.0
  0
LINE
  5
44A
  8
BLATTANSICHT_1_GEOMETRIEAN
  6
VOLLINIE
 62
    18
 10
97.12145030676902
 20
2.000000000833804
 30
0.0
 11
97.02953978677489
 21
2.000000000833804
 31
0.0
  0
LINE
  5
44B
  8
BLATTANSICHT_1_GEOMETRIEAN
  6
VOLLINIE
 62
    18
 10
97.17682426493884
 20
2.000000000833804
 30
0.0
 11
97.12145030676902
 21
2.000000000833804
 31
0.0
  0
LINE
  5
44C
  8
BLATTANSICHT_1_GEOMETRIEAN
  6
VOLLINIE
 62
    18
 10
97.1953202624816
 20
1.999999999987295
 30
0.0
 11
97.17682426493884
 21
2.000000000833804
 31
0.0
  0
LINE
  5
44D
  8
BLATTANSICHT_1_GEOMETRIEAN
  6
VOLLINIE
 62
    18
 10
96.90165936386724
 20
2.000000000833804
 30
0.0
 11
96.73859746336626
 21
2.000000000833804
 31
0.0
  0
LINE
  5
44E
  8
BLATTANSICHT_1_GEOMETRIEAN
  6
VOLLINIE
 62
    18
 10
97.0295397868076
 20
0.0
 30
0.0
 11
97.1214503068063
 21
0.0
 31
0.0
  0
LINE
  5
44F
  8
BLATTANSICHT_1_GEOMETRIEAN
  6
VOLLINIE
 62
    18
 10
97.1214503068063
 20
0.0
 30
0.0
 11
97.17682426498031
 21
0.0
 31
0.0
  0
LINE
  5
450
  8
BLATTANSICHT_1_GEOMETRIEAN
  6
VOLLINIE
 62
    18
 10
96.90165936389504
 20
0.0
 30
0.0
 11
97.0295397868076
 21
0.0
 31
0.0
  0
LINE
  5
451
  8
BLATTANSICHT_1_GEOMETRIEAN
  6
VOLLINIE
 62
    18
 10
96.73859746338887
 20
0.0
 30
0.0
 11
96.90165936389504
 21
0.0
 31
0.0
  0
LINE
  5
452
  8
BLATTANSICHT_1_GEOMETRIEAN
  6
VOLLINIE
 62
    18
 10
97.17682426498031
 20
0.0
 30
0.0
 11
97.1953202624816
 21
-0.0000000000127011
 31
0.0
  0
LINE
  5
453
  8
BLATTANSICHT_1_GEOMETRIEAN
  6
VOLLINIE
 62
    18
 10
97.1953202624816
 20
-0.0000000000127011
 30
0.0
 11
97.1953202624816
 21
1.999999999987295
 31
0.0
  0
LINE
  5
454
  8
BLATTANSICHT_1_GEOMETRIEAN
  6
VOLLINIE
 62
    18
 10
96.57655671483589
 20
0.0
 30
0.0
 11
96.73859746338887
 21
0.0
 31
0.0
  0
LINE
  5
455
  8
BLATTANSICHT_1_GEOMETRIEAN
  6
VOLLINIE
 62
    18
 10
96.39147268469844
 20
0.0
 30
0.0
 11
96.57655671483589
 21
0.0
 31
0.0
  0
LINE
  5
456
  8
BLATTANSICHT_1_GEOMETRIEAN
  6
VOLLINIE
 62
    18
 10
96.1841379312409
 20
0.0
 30
0.0
 11
96.39147268469844
 21
0.0
 31
0.0
  0
LINE
  5
457
  8
BLATTANSICHT_1_GEOMETRIEAN
  6
VOLLINIE
 62
    18
 10
96.73859746336626
 20
2.000000000833804
 30
0.0
 11
96.57655671481734
 21
2.000000000833804
 31
0.0
  0
LINE
  5
458
  8
BLATTANSICHT_1_GEOMETRIEAN
  6
VOLLINIE
 62
    18
 10
96.57655671481734
 20
2.000000000833804
 30
0.0
 11
96.391472684684
 21
2.000000000833804
 31
0.0
  0
LINE
  5
459
  8
BLATTANSICHT_1_GEOMETRIEAN
  6
VOLLINIE
 62
    18
 10
96.391472684684
 20
2.000000000833804
 30
0.0
 11
96.18413793123057
 21
2.000000000833804
 31
0.0
  0
LINE
  5
45A
  8
BLATTANSICHT_1_GEOMETRIEAN
  6
VOLLINIE
 62
    18
 10
95.95544030403944
 20
0.0
 30
0.0
 11
96.1841379312409
 21
0.0
 31
0.0
  0
LINE
  5
45B
  8
BLATTANSICHT_1_GEOMETRIEAN
  6
VOLLINIE
 62
    18
 10
95.70635911294492
 20
0.0
 30
0.0
 11
95.95544030403944
 21
0.0
 31
0.0
  0
LINE
  5
45C
  8
BLATTANSICHT_1_GEOMETRIEAN
  6
VOLLINIE
 62
    18
 10
95.43796096180955
 20
0.0
 30
0.0
 11
95.70635911294492
 21
0.0
 31
0.0
  0
LINE
  5
45D
  8
BLATTANSICHT_1_GEOMETRIEAN
  6
VOLLINIE
 62
    18
 10
96.18413793123057
 20
2.000000000833804
 30
0.0
 11
95.95544030403268
 21
2.000000000833804
 31
0.0
  0
LINE
  5
45E
  8
BLATTANSICHT_1_GEOMETRIEAN
  6
VOLLINIE
 62
    18
 10
95.70635911294167
 20
2.000000000833804
 30
0.0
 11
95.43796096180964
 21
2.000000000833804
 31
0.0
  0
LINE
  5
45F
  8
BLATTANSICHT_1_GEOMETRIEAN
  6
VOLLINIE
 62
    18
 10
95.95544030403268
 20
2.000000000833804
 30
0.0
 11
95.70635911294167
 21
2.000000000833804
 31
0.0
  0
LINE
  5
460
  8
BLATTANSICHT_1_GEOMETRIEAN
  6
VOLLINIE
 62
    18
 10
93.49142084470542
 20
0.0
 30
0.0
 11
93.84905239930805
 21
0.0
 31
0.0
  0
LINE
  5
461
  8
BLATTANSICHT_1_GEOMETRIEAN
  6
VOLLINIE
 62
    18
 10
93.84905239930805
 20
0.0
 30
0.0
 11
94.19532026503244
 21
0.0
 31
0.0
  0
LINE
  5
462
  8
BLATTANSICHT_1_GEOMETRIEAN
  6
VOLLINIE
 62
    18
 10
94.19532026503244
 20
0.0
 30
0.0
 11
94.52874166965758
 21
0.0
 31
0.0
  0
LINE
  5
463
  8
BLATTANSICHT_1_GEOMETRIEAN
  6
VOLLINIE
 62
    18
 10
94.52874166965758
 20
0.0
 30
0.0
 11
94.84788884686202
 21
0.0
 31
0.0
  0
LINE
  5
464
  8
BLATTANSICHT_1_GEOMETRIEAN
  6
VOLLINIE
 62
    18
 10
95.15139516446642
 20
0.0
 30
0.0
 11
95.43796096180955
 21
0.0
 31
0.0
  0
LINE
  5
465
  8
BLATTANSICHT_1_GEOMETRIEAN
  6
VOLLINIE
 62
    18
 10
94.84788884686202
 20
0.0
 30
0.0
 11
95.15139516446642
 21
0.0
 31
0.0
  0
VIEWPORT
  5
62
 67
     1
  8
0
 10
0.0
 20
0.0
 30
0.0
 40
1.0
 41
1.0
 68
     1
 69
     1
1001
ACAD
1000
MVIEW
1002
{
1070
    16
1010
0.0
1020
0.0
1030
0.0
1020
0.0
1030
0.0
1010
0.0
1020
0.0
1030
1.0
1020
0.0
1030
1.0
1040
0.0
1040
1.0
1040
0.0
1040
0.0
1040
50.0
1040
0.0
1040
0.0
1070
     0
1070
   100
1070
     0
1070
     3
1070
     0
1070
     0
1070
     0
1070
     0
1040
0.0
1040
0.0
1040
0.0
1040
0.5
1040
0.5
1040
0.0
1040
0.0
1070
     0
1002
{
1002
}
1002
}
  0
ENDSEC
  0
EOF
