  0
SECTION
  2
HEADER
  9
$ACADVER
  1
AC1009
  9
$DWGCODEPAGE
  3
ansi_1252
  9
$INSBASE
 10
0.0
 20
0.0
 30
0.0
  9
$EXTMIN
 10
-14.87797952118431
 20
-97.69253966909706
 30
-0.0000000000000014
  9
$EXTMAX
 10
131.7818724679998
 20
75.23029368419871
 30
75.23029368419871
  9
$LIMMIN
 10
0.0
 20
0.0
  9
$LIMMAX
 10
12.0
 20
9.0
  9
$ORTHOMODE
 70
     0
  9
$REGENMODE
 70
     1
  9
$FILLMODE
 70
     1
  9
$QTEXTMODE
 70
     0
  9
$MIRRTEXT
 70
     1
  9
$DRAGMODE
 70
     2
  9
$LTSCALE
 40
1.0
  9
$OSMODE
 70
    37
  9
$ATTMODE
 70
     1
  9
$TEXTSIZE
 40
0.2
  9
$TRACEWID
 40
0.05
  9
$TEXTSTYLE
  7
STANDARD
  9
$CLAYER
  8
0
  9
$CELTYPE
  6
BYLAYER
  9
$CECOLOR
 62
   256
  9
$DIMSCALE
 40
1.0
  9
$DIMASZ
 40
0.18
  9
$DIMEXO
 40
0.0625
  9
$DIMDLI
 40
0.38
  9
$DIMRND
 40
0.0
  9
$DIMDLE
 40
0.0
  9
$DIMEXE
 40
0.18
  9
$DIMTP
 40
0.0
  9
$DIMTM
 40
0.0
  9
$DIMTXT
 40
0.18
  9
$DIMCEN
 40
0.09
  9
$DIMTSZ
 40
0.0
  9
$DIMTOL
 70
     0
  9
$DIMLIM
 70
     0
  9
$DIMTIH
 70
     1
  9
$DIMTOH
 70
     1
  9
$DIMSE1
 70
     0
  9
$DIMSE2
 70
     0
  9
$DIMTAD
 70
     0
  9
$DIMZIN
 70
     0
  9
$DIMBLK
  1

  9
$DIMASO
 70
     1
  9
$DIMSHO
 70
     1
  9
$DIMPOST
  1

  9
$DIMAPOST
  1

  9
$DIMALT
 70
     0
  9
$DIMALTD
 70
     2
  9
$DIMALTF
 40
25.4
  9
$DIMLFAC
 40
1.0
  9
$DIMTOFL
 70
     0
  9
$DIMTVP
 40
0.0
  9
$DIMTIX
 70
     0
  9
$DIMSOXD
 70
     0
  9
$DIMSAH
 70
     0
  9
$DIMBLK1
  1

  9
$DIMBLK2
  1

  9
$DIMSTYLE
  2
STANDARD
  9
$DIMCLRD
 70
     0
  9
$DIMCLRE
 70
     0
  9
$DIMCLRT
 70
     0
  9
$DIMTFAC
 40
1.0
  9
$DIMGAP
 40
0.09
  9
$LUNITS
 70
     2
  9
$LUPREC
 70
     4
  9
$SKETCHINC
 40
0.1
  9
$FILLETRAD
 40
0.5
  9
$AUNITS
 70
     0
  9
$AUPREC
 70
     0
  9
$MENU
  1
.
  9
$ELEVATION
 40
0.0
  9
$PELEVATION
 40
0.0
  9
$THICKNESS
 40
0.0
  9
$LIMCHECK
 70
     0
  9
$CHAMFERA
 40
0.5
  9
$CHAMFERB
 40
0.5
  9
$SKPOLY
 70
     0
  9
$TDCREATE
 40
2305814.712280093
  9
$TDUPDATE
 40
2305814.712280104
  9
$TDINDWG
 40
0.0000000116
  9
$TDUSRTIMER
 40
0.0000000116
  9
$USRTIMER
 70
     1
  9
$ANGBASE
 50
0.0
  9
$ANGDIR
 70
     0
  9
$PDMODE
 70
     0
  9
$PDSIZE
 40
0.0
  9
$PLINEWID
 40
0.0
  9
$COORDS
 70
     1
  9
$SPLFRAME
 70
     0
  9
$SPLINETYPE
 70
     6
  9
$SPLINESEGS
 70
     8
  9
$ATTDIA
 70
     0
  9
$ATTREQ
 70
     1
  9
$HANDLING
 70
     1
  9
$HANDSEED
  5
4CE
  9
$SURFTAB1
 70
     6
  9
$SURFTAB2
 70
     6
  9
$SURFTYPE
 70
     6
  9
$SURFU
 70
     6
  9
$SURFV
 70
     6
  9
$UCSNAME
  2

  9
$UCSORG
 10
0.0
 20
0.0
 30
0.0
  9
$UCSXDIR
 10
1.0
 20
0.0
 30
0.0
  9
$UCSYDIR
 10
0.0
 20
1.0
 30
0.0
  9
$PUCSNAME
  2

  9
$PUCSORG
 10
0.0
 20
0.0
 30
0.0
  9
$PUCSXDIR
 10
1.0
 20
0.0
 30
0.0
  9
$PUCSYDIR
 10
0.0
 20
1.0
 30
0.0
  9
$USERI1
 70
     0
  9
$USERI2
 70
     0
  9
$USERI3
 70
     0
  9
$USERI4
 70
     0
  9
$USERI5
 70
     0
  9
$USERR1
 40
0.0
  9
$USERR2
 40
0.0
  9
$USERR3
 40
0.0
  9
$USERR4
 40
0.0
  9
$USERR5
 40
0.0
  9
$WORLDVIEW
 70
     1
  9
$SHADEDGE
 70
     3
  9
$SHADEDIF
 70
    70
  9
$TILEMODE
 70
     1
  9
$MAXACTVP
 70
    64
  9
$PLIMCHECK
 70
     0
  9
$PEXTMIN
 10
1.000000000000000E+20
 20
1.000000000000000E+20
 30
1.000000000000000E+20
  9
$PEXTMAX
 10
-1.000000000000000E+20
 20
-1.000000000000000E+20
 30
-1.000000000000000E+20
  9
$PLIMMIN
 10
0.0
 20
0.0
  9
$PLIMMAX
 10
12.0
 20
9.0
  9
$UNITMODE
 70
     0
  9
$VISRETAIN
 70
     1
  9
$PLINEGEN
 70
     0
  9
$PSLTSCALE
 70
     1
  0
ENDSEC
  0
SECTION
  2
TABLES
  0
TABLE
  2
VPORT
 70
     1
  0
VPORT
  2
*ACTIVE
 70
     0
 10
0.0
 20
0.0
 11
1.0
 21
1.0
 12
0.0
 22
0.0
 13
0.0
 23
0.0
 14
0.5
 24
0.5
 15
0.5
 25
0.5
 16
0.0
 26
0.0
 36
1.0
 17
41.31901519461353
 27
-22.04806569879667
 37
0.0
 40
63.74605402378669
 41
1.798415148605893
 42
50.0
 43
0.0
 44
0.0
 50
0.0
 51
0.0
 71
     0
 72
   100
 73
     1
 74
     3
 75
     0
 76
     0
 77
     0
 78
     0
  0
ENDTAB
  0
TABLE
  2
LTYPE
 70
    12
  0
LTYPE
  2
CONTINUOUS
 70
     0
  3
Solid line
 72
    65
 73
     0
 40
0.0
  0
LTYPE
  2
VOLLINIE
 70
     0
  3
____________________
 72
    65
 73
     0
 40
0.0
  0
LTYPE
  2
ZWEISTRICHPUNKT
 70
     0
  3
__ __ . __ __ . __ 
 72
    65
 73
     6
 40
22.225
 49
0.25
 49
-0.125
 49
0.25
 49
-0.125
 49
0.0
 49
-0.125
  0
LTYPE
  2
STRICHPUNKT_LANG
 70
     0
  3
___ _ ___ _ ___ _ _
 72
    65
 73
     4
 40
28.575
 49
0.75
 49
-0.125
 49
0.125
 49
-0.125
  0
LTYPE
  2
STRICHPUNKT
 70
     0
  3
_._._._._._._._._._
 72
    65
 73
     4
 40
12.7
 49
0.25
 49
-0.125
 49
0.0
 49
-0.125
  0
LTYPE
  2
STRICHLINIE_LANG
 70
     0
  3
_ _ _ _ _ _ _ _ _ _
 72
    65
 73
     2
 40
9.524999999999999
 49
0.25
 49
-0.125
  0
LTYPE
  2
STRICHZWEIPKT__KURZ
 70
     0
  3
__..__..__..__..__.
 72
    65
 73
     6
 40
15.875
 49
0.25
 49
-0.125
 49
0.0
 49
-0.125
 49
0.0
 49
-0.125
  0
LTYPE
  2
GEPUNKTET
 70
     0
  3
...................
 72
    65
 73
     2
 40
3.175
 49
0.0
 49
-0.125
  0
LTYPE
  2
STRICHLINIE
 70
     0
  3
__ __ __ __ __ __ _
 72
    65
 73
     2
 40
4.762499999999999
 49
0.125
 49
-0.0625
  0
LTYPE
  2
STRICHZWEIPUNKT
 70
     0
  3
___ _ _ ___ _ _ ___
 72
    65
 73
     6
 40
31.75
 49
0.625
 49
-0.125
 49
0.125
 49
-0.125
 49
0.125
 49
-0.125
  0
LTYPE
  2
STRICHZWEIPKT__LANG
 70
     0
  3
________ _ _ ______
 72
    65
 73
     6
 40
37.2745
 49
1.0
 49
-0.0725
 49
0.125
 49
-0.0725
 49
0.125
 49
-0.0725
  0
LTYPE
  2
STRICHLINIE_KURZ
 70
     0
  3
_ _ _ _ _ _ _ _ _ _
 72
    65
 73
     2
 40
3.682999999999999
 49
0.0725
 49
-0.0725
  0
ENDTAB
  0
TABLE
  2
LAYER
 70
     4
  0
LAYER
  2
0
 70
     0
 62
     7
  6
CONTINUOUS
  0
LAYER
  2
IGES-IMPORT_CS_CT-111-2
 70
     0
 62
    -7
  6
CONTINUOUS
  0
LAYER
  2
BLATTANSICHT_1
 70
     0
 62
     7
  6
CONTINUOUS
  0
LAYER
  2
BLATTANSICHT_1_GEOMETRIEAN
 70
     0
 62
     7
  6
CONTINUOUS
  0
ENDTAB
  0
TABLE
  2
STYLE
 70
     1
  0
STYLE
  2
STANDARD
 70
     0
 40
0.0
 41
1.0
 50
0.0
 71
     0
 42
0.2
  3
txt
  4

  0
ENDTAB
  0
TABLE
  2
VIEW
 70
     0
  0
ENDTAB
  0
TABLE
  2
UCS
 70
     0
  0
ENDTAB
  0
TABLE
  2
APPID
 70
     2
  0
APPID
  2
ACAD
 70
     0
  0
APPID
  2
PUNCH__SOFTWARE_VIACAD
 70
     0
  0
ENDTAB
  0
TABLE
  2
DIMSTYLE
 70
     1
  0
DIMSTYLE
  2
STANDARD
 70
     0
  3

  4

  5

  6

  7

 40
1.0
 41
0.18
 42
0.0625
 43
0.38
 44
0.18
 45
0.0
 46
0.0
 47
0.0
 48
0.0
140
0.18
141
0.09
142
0.0
143
25.4
144
1.0
145
0.0
146
1.0
147
0.09
 71
     0
 72
     0
 73
     1
 74
     1
 75
     0
 76
     0
 77
     0
 78
     0
170
     0
171
     2
172
     0
173
     0
174
     0
175
     0
176
     0
177
     0
178
     0
  0
ENDTAB
  0
ENDSEC
  0
SECTION
  2
BLOCKS
  0
BLOCK
  8
0
  2
$MODEL_SPACE
 70
     0
 10
0.0
 20
0.0
 30
0.0
  3
$MODEL_SPACE
  1

  0
ENDBLK
  5
21
  8
0
  0
BLOCK
 67
     1
  8
0
  2
$PAPER_SPACE
 70
     0
 10
0.0
 20
0.0
 30
0.0
  3
$PAPER_SPACE
  1

  0
ENDBLK
  5
1D
 67
     1
  8
0
  0
ENDSEC
  0
SECTION
  2
ENTITIES
  0
LINE
  5
6D
  8
BLATTANSICHT_1_GEOMETRIEAN
  6
VOLLINIE
 62
    18
 10
-4.569874862711528
 20
-48.84485865724515
 30
0.0
 11
-4.556583155641615
 21
-48.82139957011216
 31
0.0
  0
LINE
  5
6E
  8
BLATTANSICHT_1_GEOMETRIEAN
  6
VOLLINIE
 62
    18
 10
-4.671840563078633
 20
-49.06513585507881
 30
0.0
 11
-4.662115877454715
 21
-49.03993332673329
 31
0.0
  0
LINE
  5
6F
  8
BLATTANSICHT_1_GEOMETRIEAN
  6
VOLLINIE
 62
    18
 10
-4.740352909634375
 20
-49.29784628525042
 30
0.0
 11
-4.734436875022101
 21
-49.27148822109424
 31
0.0
  0
LINE
  5
70
  8
BLATTANSICHT_1_GEOMETRIEAN
  6
VOLLINIE
 62
    18
 10
-4.774016487416543
 20
-49.53818118731031
 30
0.0
 11
-4.772034967277597
 21
-49.5112911866613
 31
0.0
  0
LINE
  5
71
  8
BLATTANSICHT_1_GEOMETRIEAN
  6
VOLLINIE
 62
    18
 10
-4.772034967277597
 20
-49.78097160380133
 30
0.0
 11
-4.774016487416543
 21
-49.75408160315234
 31
0.0
  0
LINE
  5
72
  8
BLATTANSICHT_1_GEOMETRIEAN
  6
VOLLINIE
 62
    18
 10
-4.734436875022101
 20
-50.02077456936838
 30
0.0
 11
-4.740352909634375
 21
-49.99441650521221
 31
0.0
  0
LINE
  5
73
  8
BLATTANSICHT_1_GEOMETRIEAN
  6
VOLLINIE
 62
    18
 10
-4.662115877454704
 20
-50.2523294637294
 30
0.0
 11
-4.671840563078633
 21
-50.2271269353838
 31
0.0
  0
LINE
  5
74
  8
BLATTANSICHT_1_GEOMETRIEAN
  6
VOLLINIE
 62
    18
 10
-4.556583155641627
 20
-50.47086322035047
 30
0.0
 11
-4.569874862711506
 21
-50.44740413321752
 31
0.0
  0
LINE
  5
75
  8
BLATTANSICHT_1_GEOMETRIEAN
  6
VOLLINIE
 62
    18
 10
-1.479549953410074
 20
-33.37415940983442
 30
0.0
 11
-1.479549953469259
 21
-33.51810338651515
 31
0.0
  0
LINE
  5
76
  8
BLATTANSICHT_1_GEOMETRIEAN
  6
VOLLINIE
 62
    18
 10
-1.517091106310398
 20
-33.08900603913116
 30
0.0
 11
-1.492095497411421
 21
-33.2307631834253
 31
0.0
  0
LINE
  5
77
  8
BLATTANSICHT_1_GEOMETRIEAN
  6
VOLLINIE
 62
    18
 10
-1.603578287381097
 20
-32.81470374148318
 30
0.0
 11
-1.554346548434831
 21
-32.94996683439099
 31
0.0
  0
LINE
  5
78
  8
BLATTANSICHT_1_GEOMETRIEAN
  6
VOLLINIE
 62
    18
 10
-1.554346548434831
 20
-32.94996683439099
 30
0.0
 11
-1.517091106310398
 21
-33.08900603913116
 31
0.0
  0
LINE
  5
79
  8
BLATTANSICHT_1_GEOMETRIEAN
  6
VOLLINIE
 62
    18
 10
-1.492095497411421
 20
-33.2307631834253
 30
0.0
 11
-1.479549953410074
 21
-33.37415940983442
 31
0.0
  0
LINE
  5
7A
  8
BLATTANSICHT_1_GEOMETRIEAN
  6
VOLLINIE
 62
    18
 10
-1.554346548842892
 20
-33.94229596189705
 30
0.0
 11
-1.603578287900399
 21
-34.07755905476438
 31
0.0
  0
LINE
  5
7B
  8
BLATTANSICHT_1_GEOMETRIEAN
  6
VOLLINIE
 62
    18
 10
-1.517091106604103
 20
-33.80325675718753
 30
0.0
 11
-1.554346548842892
 21
-33.94229596189705
 31
0.0
  0
LINE
  5
7C
  8
BLATTANSICHT_1_GEOMETRIEAN
  6
VOLLINIE
 62
    18
 10
-1.492095497588537
 20
-33.66149961291394
 30
0.0
 11
-1.517091106604103
 21
-33.80325675718753
 31
0.0
  0
LINE
  5
7D
  8
BLATTANSICHT_1_GEOMETRIEAN
  6
VOLLINIE
 62
    18
 10
-1.479549953469259
 20
-33.51810338651515
 30
0.0
 11
-1.492095497588537
 21
-33.66149961291394
 31
0.0
  0
LINE
  5
7E
  8
BLATTANSICHT_1_GEOMETRIEAN
  6
VOLLINIE
 62
    18
 10
-3.235894680519416
 20
-31.79966417329636
 30
0.0
 11
-3.127979517887982
 21
-31.79613139673133
 31
0.0
  0
LINE
  5
7F
  8
BLATTANSICHT_1_GEOMETRIEAN
  6
VOLLINIE
 62
    18
 10
-3.343347733569231
 20
-31.81024737520419
 30
0.0
 11
-3.235894680519416
 21
-31.79966417329636
 31
0.0
  0
LINE
  5
80
  8
BLATTANSICHT_1_GEOMETRIEAN
  6
VOLLINIE
 62
    18
 10
-3.449878546871735
 20
-31.82783568352126
 30
0.0
 11
-3.343347733569231
 21
-31.81024737520419
 31
0.0
  0
LINE
  5
81
  8
BLATTANSICHT_1_GEOMETRIEAN
  6
VOLLINIE
 62
    18
 10
-4.772140983437404
 20
-33.30744803121648
 30
0.0
 11
-4.754666698649634
 21
-33.16974612827879
 31
0.0
  0
LINE
  5
82
  8
BLATTANSICHT_1_GEOMETRIEAN
  6
VOLLINIE
 62
    18
 10
-4.725680328805496
 20
-33.85826258870809
 30
0.0
 11
-4.754666698220966
 21
-33.72251666762898
 31
0.0
  0
LINE
  5
83
  8
BLATTANSICHT_1_GEOMETRIEAN
  6
VOLLINIE
 62
    18
 10
-4.685387011855106
 20
-33.99109185246664
 30
0.0
 11
-4.725680328805496
 21
-33.85826258870809
 31
0.0
  0
LINE
  5
84
  8
BLATTANSICHT_1_GEOMETRIEAN
  6
VOLLINIE
 62
    18
 10
-4.634071903650442
 20
-34.12006442463392
 30
0.0
 11
-4.685387011855106
 21
-33.99109185246664
 31
0.0
  0
LINE
  5
85
  8
BLATTANSICHT_1_GEOMETRIEAN
  6
VOLLINIE
 62
    18
 10
-4.572098161819221
 20
-34.24426756479126
 30
0.0
 11
-4.634071903650442
 21
-34.12006442463392
 31
0.0
  0
LINE
  5
86
  8
BLATTANSICHT_1_GEOMETRIEAN
  6
VOLLINIE
 62
    18
 10
-4.499904375265399
 20
-34.36282228584666
 30
0.0
 11
-4.572098161819221
 21
-34.24426756479126
 31
0.0
  0
LINE
  5
87
  8
BLATTANSICHT_1_GEOMETRIEAN
  6
VOLLINIE
 62
    18
 10
-4.772140983222308
 20
-33.5848147647184
 30
0.0
 11
-4.77797951808788
 21
-33.44613139797196
 31
0.0
  0
LINE
  5
88
  8
BLATTANSICHT_1_GEOMETRIEAN
  6
VOLLINIE
 62
    18
 10
-4.754666698220966
 20
-33.72251666762898
 30
0.0
 11
-4.772140983222308
 21
-33.5848147647184
 31
0.0
  0
LINE
  5
89
  8
BLATTANSICHT_1_GEOMETRIEAN
  6
VOLLINIE
 62
    18
 10
-4.77797951808788
 20
-33.44613139797196
 30
0.0
 11
-4.772140983437404
 21
-33.30744803121648
 31
0.0
  0
LINE
  5
8A
  8
BLATTANSICHT_1_GEOMETRIEAN
  6
VOLLINIE
 62
    18
 10
-4.754666698649634
 20
-33.16974612827879
 30
0.0
 11
-4.725680329444715
 21
-33.03400020715473
 31
0.0
  0
LINE
  5
8B
  8
BLATTANSICHT_1_GEOMETRIEAN
  6
VOLLINIE
 62
    18
 10
-4.685387012700351
 20
-32.90117094333368
 30
0.0
 11
-4.634071904695725
 21
-32.7721983710868
 31
0.0
  0
LINE
  5
8C
  8
BLATTANSICHT_1_GEOMETRIEAN
  6
VOLLINIE
 62
    18
 10
-4.725680329444715
 20
-33.03400020715473
 30
0.0
 11
-4.685387012700351
 21
-32.90117094333368
 31
0.0
  0
LINE
  5
8D
  8
BLATTANSICHT_1_GEOMETRIEAN
  6
VOLLINIE
 62
    18
 10
-4.634071904695725
 20
-32.7721983710868
 30
0.0
 11
-4.572098163057141
 21
-32.64799523083335
 31
0.0
  0
LINE
  5
8E
  8
BLATTANSICHT_1_GEOMETRIEAN
  6
VOLLINIE
 62
    18
 10
-4.572098163057141
 20
-32.64799523083335
 30
0.0
 11
-4.499904376687204
 21
-32.52944050966598
 31
0.0
  0
LINE
  5
8F
  8
BLATTANSICHT_1_GEOMETRIEAN
  6
VOLLINIE
 62
    18
 10
-4.437012526707393
 20
-34.45058775828534
 30
0.0
 11
-4.499904375265399
 21
-34.36282228584666
 31
0.0
  0
LINE
  5
90
  8
BLATTANSICHT_1_GEOMETRIEAN
  6
VOLLINIE
 62
    18
 10
-4.294705705022294
 20
-34.61285758767358
 30
0.0
 11
-4.368515197935447
 21
-34.53405199444993
 31
0.0
  0
LINE
  5
91
  8
BLATTANSICHT_1_GEOMETRIEAN
  6
VOLLINIE
 62
    18
 10
-4.368515197935447
 20
-34.53405199444993
 30
0.0
 11
-4.437012526707393
 21
-34.45058775828534
 31
0.0
  0
LINE
  5
92
  8
BLATTANSICHT_1_GEOMETRIEAN
  6
VOLLINIE
 62
    18
 10
-4.215900111881569
 20
-34.68666708001616
 30
0.0
 11
-4.294705705022294
 21
-34.61285758767358
 31
0.0
  0
LINE
  5
93
  8
BLATTANSICHT_1_GEOMETRIEAN
  6
VOLLINIE
 62
    18
 10
-4.044670403608158
 20
-34.81805625629806
 30
0.0
 11
-4.13243587585577
 21
-34.75516440824696
 31
0.0
  0
LINE
  5
94
  8
BLATTANSICHT_1_GEOMETRIEAN
  6
VOLLINIE
 62
    18
 10
-4.13243587585577
 20
-34.75516440824696
 30
0.0
 11
-4.215900111881569
 21
-34.68666708001616
 31
0.0
  0
LINE
  5
95
  8
BLATTANSICHT_1_GEOMETRIEAN
  6
VOLLINIE
 62
    18
 10
-3.952979519684384
 20
-34.87507331201496
 30
0.0
 11
-4.044670403608158
 21
-34.81805625629806
 31
0.0
  0
LINE
  5
96
  8
BLATTANSICHT_1_GEOMETRIEAN
  6
VOLLINIE
 62
    18
 10
-3.759407184293169
 20
-34.970532624175
 30
0.0
 11
-3.857755859136399
 21
-34.92597141914272
 31
0.0
  0
LINE
  5
97
  8
BLATTANSICHT_1_GEOMETRIEAN
  6
VOLLINIE
 62
    18
 10
-3.857755859136399
 20
-34.92597141914272
 30
0.0
 11
-3.952979519684384
 21
-34.87507331201496
 31
0.0
  0
LINE
  5
98
  8
BLATTANSICHT_1_GEOMETRIEAN
  6
VOLLINIE
 62
    18
 10
-3.658354636745448
 20
-35.00856611005129
 30
0.0
 11
-3.759407184293169
 21
-34.970532624175
 31
0.0
  0
LINE
  5
99
  8
BLATTANSICHT_1_GEOMETRIEAN
  6
VOLLINIE
 62
    18
 10
-3.449878546282802
 20
-35.06442710998063
 30
0.0
 11
-3.555030941427694
 21
-35.03990901035856
 31
0.0
  0
LINE
  5
9A
  8
BLATTANSICHT_1_GEOMETRIEAN
  6
VOLLINIE
 62
    18
 10
-3.555030941427694
 20
-35.03990901035856
 30
0.0
 11
-3.658354636745448
 21
-35.00856611005129
 31
0.0
  0
LINE
  5
9B
  8
BLATTANSICHT_1_GEOMETRIEAN
  6
VOLLINIE
 62
    18
 10
-2.806080487699573
 20
-51.26442711015051
 30
0.0
 11
-2.912611301360934
 21
-51.28201541868982
 31
0.0
  0
LINE
  5
9C
  8
BLATTANSICHT_1_GEOMETRIEAN
  6
VOLLINIE
 62
    18
 10
-3.020064354785872
 20
-51.29259862077052
 30
0.0
 11
-3.127979517507455
 21
-51.29613139673131
 31
0.0
  0
LINE
  5
9D
  8
BLATTANSICHT_1_GEOMETRIEAN
  6
VOLLINIE
 62
    18
 10
-2.912611301360934
 20
-51.28201541868982
 30
0.0
 11
-3.020064354785872
 21
-51.29259862077052
 31
0.0
  0
LINE
  5
9E
  8
BLATTANSICHT_1_GEOMETRIEAN
  6
VOLLINIE
 62
    18
 10
-1.887443838487924
 20
-48.55821080059426
 30
0.0
 11
-1.818946509870569
 21
-48.64167503667955
 31
0.0
  0
LINE
  5
9F
  8
BLATTANSICHT_1_GEOMETRIEAN
  6
VOLLINIE
 62
    18
 10
-1.961253331234023
 20
-48.47940520743249
 30
0.0
 11
-1.887443838487924
 21
-48.55821080059426
 31
0.0
  0
LINE
  5
A0
  8
BLATTANSICHT_1_GEOMETRIEAN
  6
VOLLINIE
 62
    18
 10
-1.818946509870569
 20
-48.64167503667955
 30
0.0
 11
-1.756054661453144
 21
-48.72944050902292
 31
0.0
  0
LINE
  5
A1
  8
BLATTANSICHT_1_GEOMETRIEAN
  6
VOLLINIE
 62
    18
 10
-2.056390239513622
 20
-48.39146155410893
 30
0.0
 11
-1.961253331234023
 21
-48.47940520743249
 31
0.0
  0
LINE
  5
A2
  8
BLATTANSICHT_1_GEOMETRIEAN
  6
VOLLINIE
 62
    18
 10
-2.15813385190509
 20
-48.31125335743035
 30
0.0
 11
-2.056390239513622
 21
-48.39146155410893
 31
0.0
  0
LINE
  5
A3
  8
BLATTANSICHT_1_GEOMETRIEAN
  6
VOLLINIE
 62
    18
 10
-2.265856885217797
 20
-48.23927512759102
 30
0.0
 11
-2.15813385190509
 21
-48.31125335743035
 31
0.0
  0
LINE
  5
A4
  8
BLATTANSICHT_1_GEOMETRIEAN
  6
VOLLINIE
 62
    18
 10
-2.378895191143529
 20
-48.17597063430394
 30
0.0
 11
-2.265856885217797
 21
-48.23927512759102
 31
0.0
  0
LINE
  5
A5
  8
BLATTANSICHT_1_GEOMETRIEAN
  6
VOLLINIE
 62
    18
 10
-2.496551850951569
 20
-48.12173017081304
 30
0.0
 11
-2.378895191143529
 21
-48.17597063430394
 31
0.0
  0
LINE
  5
A6
  8
BLATTANSICHT_1_GEOMETRIEAN
  6
VOLLINIE
 62
    18
 10
-2.597604398362172
 20
-48.08369668483913
 30
0.0
 11
-2.496551850951569
 21
-48.12173017081304
 31
0.0
  0
LINE
  5
A7
  8
BLATTANSICHT_1_GEOMETRIEAN
  6
VOLLINIE
 62
    18
 10
-2.700928093547692
 20
-48.05235378441962
 30
0.0
 11
-2.597604398362172
 21
-48.08369668483913
 31
0.0
  0
LINE
  5
A8
  8
BLATTANSICHT_1_GEOMETRIEAN
  6
VOLLINIE
 62
    18
 10
-2.806080488566577
 20
-48.02783568467087
 30
0.0
 11
-2.700928093547692
 21
-48.05235378441962
 31
0.0
  0
LINE
  5
A9
  8
BLATTANSICHT_1_GEOMETRIEAN
  6
VOLLINIE
 62
    18
 10
-2.912611302070979
 20
-48.01024737621054
 30
0.0
 11
-2.806080488566577
 21
-48.02783568467087
 31
0.0
  0
LINE
  5
AA
  8
BLATTANSICHT_1_GEOMETRIEAN
  6
VOLLINIE
 62
    18
 10
-3.020064355333048
 20
-47.99966417418747
 30
0.0
 11
-2.912611302070979
 21
-48.01024737621054
 31
0.0
  0
LINE
  5
AB
  8
BLATTANSICHT_1_GEOMETRIEAN
  6
VOLLINIE
 62
    18
 10
-3.127979517887982
 20
-47.99613139673132
 30
0.0
 11
-3.020064355333048
 21
-47.99966417418747
 31
0.0
  0
LINE
  5
AC
  8
BLATTANSICHT_1_GEOMETRIEAN
  6
VOLLINIE
 62
    18
 10
-3.209039766430781
 20
-47.99811291276256
 30
0.0
 11
-3.127979517887982
 21
-47.99613139673132
 31
0.0
  0
LINE
  5
AD
  8
BLATTANSICHT_1_GEOMETRIEAN
  6
VOLLINIE
 62
    18
 10
-3.289709684845485
 20
-48.00405746835632
 30
0.0
 11
-3.209039766430781
 21
-47.99811291276256
 31
0.0
  0
LINE
  5
AE
  8
BLATTANSICHT_1_GEOMETRIEAN
  6
VOLLINIE
 62
    18
 10
-3.369989277648834
 20
-48.01396506101256
 30
0.0
 11
-3.289709684845485
 21
-48.00405746835632
 31
0.0
  0
LINE
  5
AF
  8
BLATTANSICHT_1_GEOMETRIEAN
  6
VOLLINIE
 62
    18
 10
-3.449878544840829
 20
-48.02783569073132
 30
0.0
 11
-3.369989277648834
 21
-48.01396506101256
 31
0.0
  0
LINE
  5
B0
  8
BLATTANSICHT_1_GEOMETRIEAN
  6
VOLLINIE
 62
    18
 10
-3.343347732948658
 20
-35.08201541826227
 30
0.0
 11
-3.449878546282802
 21
-35.06442710998063
 31
0.0
  0
LINE
  5
B1
  8
BLATTANSICHT_1_GEOMETRIEAN
  6
VOLLINIE
 62
    18
 10
-3.235894679869425
 20
-35.09259862013099
 30
0.0
 11
-3.343347732948658
 21
-35.08201541826227
 31
0.0
  0
LINE
  5
B2
  8
BLATTANSICHT_1_GEOMETRIEAN
  6
VOLLINIE
 62
    18
 10
-3.127979517507455
 20
-35.09613139673133
 30
0.0
 11
-3.235894679869425
 21
-35.09259862013099
 31
0.0
  0
LINE
  5
B3
  8
BLATTANSICHT_1_GEOMETRIEAN
  6
VOLLINIE
 62
    18
 10
-3.528994666753229
 20
-48.04559319841882
 30
0.0
 11
-3.449878544840829
 21
-48.02783569073132
 31
0.0
  0
LINE
  5
B4
  8
BLATTANSICHT_1_GEOMETRIEAN
  6
VOLLINIE
 62
    18
 10
-3.606954813521247
 20
-48.06716144848131
 30
0.0
 11
-3.528994666753229
 21
-48.04559319841882
 31
0.0
  0
LINE
  5
B5
  8
BLATTANSICHT_1_GEOMETRIEAN
  6
VOLLINIE
 62
    18
 10
-3.683758985144872
 20
-48.09254044091882
 30
0.0
 11
-3.606954813521247
 21
-48.06716144848131
 31
0.0
  0
LINE
  5
B6
  8
BLATTANSICHT_1_GEOMETRIEAN
  6
VOLLINIE
 62
    18
 10
-3.759407181624116
 20
-48.12173017573132
 30
0.0
 11
-3.683758985144872
 21
-48.09254044091882
 31
0.0
  0
LINE
  5
B7
  8
BLATTANSICHT_1_GEOMETRIEAN
  6
VOLLINIE
 62
    18
 10
-3.833538789487688
 20
-48.15458126929381
 30
0.0
 11
-3.759407181624116
 21
-48.12173017573132
 31
0.0
  0
LINE
  5
B8
  8
BLATTANSICHT_1_GEOMETRIEAN
  6
VOLLINIE
 62
    18
 10
-3.905793195264319
 20
-48.19094436148131
 30
0.0
 11
-3.833538789487688
 21
-48.15458126929381
 31
0.0
  0
LINE
  5
B9
  8
BLATTANSICHT_1_GEOMETRIEAN
  6
VOLLINIE
 62
    18
 10
-3.976170398954011
 20
-48.23081945229382
 30
0.0
 11
-3.905793195264319
 21
-48.19094436148131
 31
0.0
  0
LINE
  5
BA
  8
BLATTANSICHT_1_GEOMETRIEAN
  6
VOLLINIE
 62
    18
 10
-4.044670400556763
 20
-48.27420654173131
 30
0.0
 11
-3.976170398954011
 21
-48.23081945229382
 31
0.0
  0
LINE
  5
BB
  8
BLATTANSICHT_1_GEOMETRIEAN
  6
VOLLINIE
 62
    18
 10
-4.11096866139513
 20
-48.32088877473132
 30
0.0
 11
-4.044670400556763
 21
-48.27420654173131
 31
0.0
  0
LINE
  5
BC
  8
BLATTANSICHT_1_GEOMETRIEAN
  6
VOLLINIE
 62
    18
 10
-4.174740632595146
 20
-48.37064929623131
 30
0.0
 11
-4.11096866139513
 21
-48.32088877473132
 31
0.0
  0
LINE
  5
BD
  8
BLATTANSICHT_1_GEOMETRIEAN
  6
VOLLINIE
 62
    18
 10
-4.235986314156775
 20
-48.42348810623132
 30
0.0
 11
-4.174740632595146
 21
-48.37064929623131
 31
0.0
  0
LINE
  5
BE
  8
BLATTANSICHT_1_GEOMETRIEAN
  6
VOLLINIE
 62
    18
 10
-4.294705706080041
 20
-48.47940520473132
 30
0.0
 11
-4.235986314156775
 21
-48.42348810623132
 31
0.0
  0
LINE
  5
BF
  8
BLATTANSICHT_1_GEOMETRIEAN
  6
VOLLINIE
 62
    18
 10
-4.350622812325724
 20
-48.53812460185632
 30
0.0
 11
-4.294705706080041
 21
-48.47940520473132
 31
0.0
  0
LINE
  5
C0
  8
BLATTANSICHT_1_GEOMETRIEAN
  6
VOLLINIE
 62
    18
 10
-4.403461626658046
 20
-48.59937028423132
 30
0.0
 11
-4.350622812325724
 21
-48.53812460185632
 31
0.0
  0
LINE
  5
C1
  8
BLATTANSICHT_1_GEOMETRIEAN
  6
VOLLINIE
 62
    18
 10
-4.453222149077009
 20
-48.66314225185632
 30
0.0
 11
-4.403461626658046
 21
-48.59937028423132
 31
0.0
  0
LINE
  5
C2
  8
BLATTANSICHT_1_GEOMETRIEAN
  6
VOLLINIE
 62
    18
 10
-4.49990437958261
 20
-48.72944050473131
 30
0.0
 11
-4.453222149077009
 21
-48.66314225185632
 31
0.0
  0
LINE
  5
C3
  8
BLATTANSICHT_1_GEOMETRIEAN
  6
VOLLINIE
 62
    18
 10
-4.777979522978706
 20
-49.64613139523132
 30
0.0
 11
-4.773521107480147
 21
-49.52468739794226
 31
0.0
  0
LINE
  5
C4
  8
BLATTANSICHT_1_GEOMETRIEAN
  6
VOLLINIE
 62
    18
 10
-4.773521107480147
 20
-49.76757539252038
 30
0.0
 11
-4.777979522978706
 21
-49.64613139523132
 31
0.0
  0
LINE
  5
C5
  8
BLATTANSICHT_1_GEOMETRIEAN
  6
VOLLINIE
 62
    18
 10
-4.760145860984459
 20
-49.88814115588757
 30
0.0
 11
-4.773521107480147
 21
-49.76757539252038
 31
0.0
  0
LINE
  5
C6
  8
BLATTANSICHT_1_GEOMETRIEAN
  6
VOLLINIE
 62
    18
 10
-4.737872820629455
 20
-50.00773297937975
 30
0.0
 11
-4.760145860984459
 21
-49.88814115588757
 31
0.0
  0
LINE
  5
C7
  8
BLATTANSICHT_1_GEOMETRIEAN
  6
VOLLINIE
 62
    18
 10
-4.706949469206753
 20
-50.12510668560632
 30
0.0
 11
-4.737872820629455
 21
-50.00773297937975
 31
0.0
  0
LINE
  5
C8
  8
BLATTANSICHT_1_GEOMETRIEAN
  6
VOLLINIE
 62
    18
 10
-4.49990437958261
 20
-50.56282228573131
 30
0.0
 11
-4.563668010633393
 21
-50.4593683242235
 31
0.0
  0
LINE
  5
C9
  8
BLATTANSICHT_1_GEOMETRIEAN
  6
VOLLINIE
 62
    18
 10
-4.563668010633393
 20
-50.4593683242235
 30
0.0
 11
-4.619529650138973
 21
-50.35169066145007
 31
0.0
  0
LINE
  5
CA
  8
BLATTANSICHT_1_GEOMETRIEAN
  6
VOLLINIE
 62
    18
 10
-4.667451955267609
 20
-50.23987945075476
 30
0.0
 11
-4.706949469206753
 21
-50.12510668560632
 31
0.0
  0
LINE
  5
CB
  8
BLATTANSICHT_1_GEOMETRIEAN
  6
VOLLINIE
 62
    18
 10
-4.619529650138973
 20
-50.35169066145007
 30
0.0
 11
-4.667451955267609
 21
-50.23987945075476
 31
0.0
  0
LINE
  5
CC
  8
BLATTANSICHT_1_GEOMETRIEAN
  6
VOLLINIE
 62
    18
 10
-4.773521107480147
 20
-49.52468739794226
 30
0.0
 11
-4.760145860984459
 21
-49.40412163457506
 31
0.0
  0
LINE
  5
CD
  8
BLATTANSICHT_1_GEOMETRIEAN
  6
VOLLINIE
 62
    18
 10
-4.760145860984459
 20
-49.40412163457506
 30
0.0
 11
-4.737872820629455
 21
-49.28452981108288
 31
0.0
  0
LINE
  5
CE
  8
BLATTANSICHT_1_GEOMETRIEAN
  6
VOLLINIE
 62
    18
 10
-4.737872820629455
 20
-49.28452981108288
 30
0.0
 11
-4.706949469206753
 21
-49.16715610485632
 31
0.0
  0
LINE
  5
CF
  8
BLATTANSICHT_1_GEOMETRIEAN
  6
VOLLINIE
 62
    18
 10
-4.706949469206753
 20
-49.16715610485632
 30
0.0
 11
-4.667451955267609
 21
-49.05238333970788
 31
0.0
  0
LINE
  5
D0
  8
BLATTANSICHT_1_GEOMETRIEAN
  6
VOLLINIE
 62
    18
 10
-4.667451955267609
 20
-49.05238333970788
 30
0.0
 11
-4.619529650138973
 21
-48.94057212901257
 31
0.0
  0
LINE
  5
D1
  8
BLATTANSICHT_1_GEOMETRIEAN
  6
VOLLINIE
 62
    18
 10
-4.619529650138973
 20
-48.94057212901257
 30
0.0
 11
-4.563668010633393
 21
-48.83289446623913
 31
0.0
  0
LINE
  5
D2
  8
BLATTANSICHT_1_GEOMETRIEAN
  6
VOLLINIE
 62
    18
 10
-4.563668010633393
 20
-48.83289446623913
 30
0.0
 11
-4.49990437958261
 21
-48.72944050473131
 31
0.0
  0
LINE
  5
D3
  8
BLATTANSICHT_1_GEOMETRIEAN
  6
VOLLINIE
 62
    18
 10
-3.245884796184302
 20
-53.29613139673132
 30
0.0
 11
-3.127979518184304
 21
-53.29613139673132
 31
0.0
  0
LINE
  5
D4
  8
BLATTANSICHT_1_GEOMETRIEAN
  6
VOLLINIE
 62
    18
 10
-3.127979517507455
 20
-51.29613139673131
 30
0.0
 11
-3.209039766430781
 21
-51.29414987770006
 31
0.0
  0
LINE
  5
D5
  8
BLATTANSICHT_1_GEOMETRIEAN
  6
VOLLINIE
 62
    18
 10
-3.289709684845485
 20
-51.28820532210631
 30
0.0
 11
-3.369989277648834
 21
-51.27829772945007
 31
0.0
  0
LINE
  5
D6
  8
BLATTANSICHT_1_GEOMETRIEAN
  6
VOLLINIE
 62
    18
 10
-3.209039766430781
 20
-51.29414987770006
 30
0.0
 11
-3.289709684845485
 21
-51.28820532210631
 31
0.0
  0
LINE
  5
D7
  8
BLATTANSICHT_1_GEOMETRIEAN
  6
VOLLINIE
 62
    18
 10
-3.369989277648834
 20
-51.27829772945007
 30
0.0
 11
-3.449878544840829
 21
-51.26442709973133
 31
0.0
  0
LINE
  5
D8
  8
BLATTANSICHT_1_GEOMETRIEAN
  6
VOLLINIE
 62
    18
 10
-3.528994666753229
 20
-51.24666959204382
 30
0.0
 11
-3.606954813521247
 21
-51.22510134198131
 31
0.0
  0
LINE
  5
D9
  8
BLATTANSICHT_1_GEOMETRIEAN
  6
VOLLINIE
 62
    18
 10
-3.449878544840829
 20
-51.26442709973133
 30
0.0
 11
-3.528994666753229
 21
-51.24666959204382
 31
0.0
  0
LINE
  5
DA
  8
BLATTANSICHT_1_GEOMETRIEAN
  6
VOLLINIE
 62
    18
 10
-3.606954813521247
 20
-51.22510134198131
 30
0.0
 11
-3.683758985144872
 21
-51.19972234954382
 31
0.0
  0
LINE
  5
DB
  8
BLATTANSICHT_1_GEOMETRIEAN
  6
VOLLINIE
 62
    18
 10
-3.683758985144872
 20
-51.19972234954382
 30
0.0
 11
-3.759407181624116
 21
-51.17053261473131
 31
0.0
  0
LINE
  5
DC
  8
BLATTANSICHT_1_GEOMETRIEAN
  6
VOLLINIE
 62
    18
 10
-3.759407181624116
 20
-51.17053261473131
 30
0.0
 11
-3.833538789487688
 21
-51.13768152116882
 31
0.0
  0
LINE
  5
DD
  8
BLATTANSICHT_1_GEOMETRIEAN
  6
VOLLINIE
 62
    18
 10
-3.833538789487688
 20
-51.13768152116882
 30
0.0
 11
-3.905793195264319
 21
-51.10131842898132
 31
0.0
  0
LINE
  5
DE
  8
BLATTANSICHT_1_GEOMETRIEAN
  6
VOLLINIE
 62
    18
 10
-3.976170398954011
 20
-51.06144333816882
 30
0.0
 11
-4.044670400556763
 21
-51.01805624873131
 31
0.0
  0
LINE
  5
DF
  8
BLATTANSICHT_1_GEOMETRIEAN
  6
VOLLINIE
 62
    18
 10
-3.905793195264319
 20
-51.10131842898132
 30
0.0
 11
-3.976170398954011
 21
-51.06144333816882
 31
0.0
  0
LINE
  5
E0
  8
BLATTANSICHT_1_GEOMETRIEAN
  6
VOLLINIE
 62
    18
 10
-4.044670400556763
 20
-51.01805624873131
 30
0.0
 11
-4.110968661395142
 21
-50.97137402454382
 31
0.0
  0
LINE
  5
E1
  8
BLATTANSICHT_1_GEOMETRIEAN
  6
VOLLINIE
 62
    18
 10
-4.174740632595146
 20
-50.92161350598132
 30
0.0
 11
-4.235986314156775
 21
-50.86877469304382
 31
0.0
  0
LINE
  5
E2
  8
BLATTANSICHT_1_GEOMETRIEAN
  6
VOLLINIE
 62
    18
 10
-4.110968661395142
 20
-50.97137402454382
 30
0.0
 11
-4.174740632595146
 21
-50.92161350598132
 31
0.0
  0
LINE
  5
E3
  8
BLATTANSICHT_1_GEOMETRIEAN
  6
VOLLINIE
 62
    18
 10
-4.235986314156775
 20
-50.86877469304382
 30
0.0
 11
-4.294705706080041
 21
-50.81285758573131
 31
0.0
  0
LINE
  5
E4
  8
BLATTANSICHT_1_GEOMETRIEAN
  6
VOLLINIE
 62
    18
 10
-4.350622812325724
 20
-50.75413818860631
 30
0.0
 11
-4.403461626658046
 21
-50.69289250623132
 31
0.0
  0
LINE
  5
E5
  8
BLATTANSICHT_1_GEOMETRIEAN
  6
VOLLINIE
 62
    18
 10
-4.294705706080041
 20
-50.81285758573131
 30
0.0
 11
-4.350622812325724
 21
-50.75413818860631
 31
0.0
  0
LINE
  5
E6
  8
BLATTANSICHT_1_GEOMETRIEAN
  6
VOLLINIE
 62
    18
 10
-4.403461626658046
 20
-50.69289250623132
 30
0.0
 11
-4.453222149077009
 21
-50.62912053860632
 31
0.0
  0
LINE
  5
E7
  8
BLATTANSICHT_1_GEOMETRIEAN
  6
VOLLINIE
 62
    18
 10
-4.453222149077009
 20
-50.62912053860632
 30
0.0
 11
-4.49990437958261
 21
-50.56282228573131
 31
0.0
  0
LINE
  5
E8
  8
BLATTANSICHT_1_GEOMETRIEAN
  6
VOLLINIE
 62
    18
 10
-6.160721205645443
 20
-51.48356964030855
 30
0.0
 11
-6.060467357152856
 21
-51.67113139850668
 31
0.0
  0
LINE
  5
E9
  8
BLATTANSICHT_1_GEOMETRIEAN
  6
VOLLINIE
 62
    18
 10
-5.948161033845061
 20
-51.85173465711802
 30
0.0
 11
-6.060467357152856
 21
-51.67113139850668
 31
0.0
  0
LINE
  5
EA
  8
BLATTANSICHT_1_GEOMETRIEAN
  6
VOLLINIE
 62
    18
 10
-6.160721205645443
 20
-51.48356964030855
 30
0.0
 11
-6.248493276945779
 21
-51.28985255077952
 31
0.0
  0
LINE
  5
EB
  8
BLATTANSICHT_1_GEOMETRIEAN
  6
VOLLINIE
 62
    18
 10
-6.734635511640591
 20
-49.11981131649786
 30
0.0
 11
-6.701992167660509
 21
-49.14162290192756
 31
0.0
  0
LINE
  5
EC
  8
BLATTANSICHT_1_GEOMETRIEAN
  6
VOLLINIE
 62
    18
 10
-6.768889544370069
 20
-49.1006281361847
 30
0.0
 11
-6.734635511640591
 21
-49.11981131649786
 31
0.0
  0
LINE
  5
ED
  8
BLATTANSICHT_1_GEOMETRIEAN
  6
VOLLINIE
 62
    18
 10
-6.804543078342185
 20
-49.08419163167622
 30
0.0
 11
-6.768889544370069
 21
-49.1006281361847
 31
0.0
  0
LINE
  5
EE
  8
BLATTANSICHT_1_GEOMETRIEAN
  6
VOLLINIE
 62
    18
 10
-6.701992167660509
 20
-49.14162290192756
 30
0.0
 11
-6.671160769504619
 21
-49.16592841679376
 31
0.0
  0
LINE
  5
EF
  8
BLATTANSICHT_1_GEOMETRIEAN
  6
VOLLINIE
 62
    18
 10
-6.671160769504619
 20
-49.16592841679376
 30
0.0
 11
-6.64233140299893
 21
-49.19257800951184
 31
0.0
  0
LINE
  5
F0
  8
BLATTANSICHT_1_GEOMETRIEAN
  6
VOLLINIE
 62
    18
 10
-6.841376297606733
 20
-49.0706031395076
 30
0.0
 11
-6.804543078342185
 21
-49.08419163167622
 31
0.0
  0
LINE
  5
F1
  8
BLATTANSICHT_1_GEOMETRIEAN
  6
VOLLINIE
 62
    18
 10
-6.879162113164043
 20
-49.05994643722801
 30
0.0
 11
-6.841376297606733
 21
-49.0706031395076
 31
0.0
  0
LINE
  5
F2
  8
BLATTANSICHT_1_GEOMETRIEAN
  6
VOLLINIE
 62
    18
 10
-6.917667562892009
 20
-49.05228722695188
 30
0.0
 11
-6.879162113164043
 21
-49.05994643722801
 31
0.0
  0
LINE
  5
F3
  8
BLATTANSICHT_1_GEOMETRIEAN
  6
VOLLINIE
 62
    18
 10
-6.956655247884485
 20
-49.04767273025836
 30
0.0
 11
-6.917667562892009
 21
-49.05228722695188
 31
0.0
  0
LINE
  5
F4
  8
BLATTANSICHT_1_GEOMETRIEAN
  6
VOLLINIE
 62
    18
 10
-6.995884796184295
 20
-49.04613139673133
 30
0.0
 11
-6.956655247884485
 21
-49.04767273025836
 31
0.0
  0
LINE
  5
F5
  8
BLATTANSICHT_1_GEOMETRIEAN
  6
VOLLINIE
 62
    18
 10
-8.594627782184293
 20
-49.04613139673132
 30
0.0
 11
-6.995884796184295
 21
-49.04613139673133
 31
0.0
  0
LINE
  5
F6
  8
BLATTANSICHT_1_GEOMETRIEAN
  6
VOLLINIE
 62
    18
 10
-6.995884796184295
 20
-34.04613139673133
 30
0.0
 11
-8.594627782184293
 21
-34.04613139673133
 31
0.0
  0
LINE
  5
F7
  8
BLATTANSICHT_1_GEOMETRIEAN
  6
VOLLINIE
 62
    18
 10
-6.956655247768348
 20
-34.04459006342547
 30
0.0
 11
-6.995884796184295
 21
-34.04613139673133
 31
0.0
  0
LINE
  5
F8
  8
BLATTANSICHT_1_GEOMETRIEAN
  6
VOLLINIE
 62
    18
 10
-6.917667562772432
 20
-34.03997556676508
 30
0.0
 11
-6.956655247768348
 21
-34.04459006342547
 31
0.0
  0
LINE
  5
F9
  8
BLATTANSICHT_1_GEOMETRIEAN
  6
VOLLINIE
 62
    18
 10
-6.879162113038419
 20
-34.03231635652176
 30
0.0
 11
-6.917667562772432
 21
-34.03997556676508
 31
0.0
  0
LINE
  5
FA
  8
BLATTANSICHT_1_GEOMETRIEAN
  6
VOLLINIE
 62
    18
 10
-6.841376297472503
 20
-34.02165965427444
 30
0.0
 11
-6.879162113038419
 21
-34.03231635652176
 31
0.0
  0
LINE
  5
FB
  8
BLATTANSICHT_1_GEOMETRIEAN
  6
VOLLINIE
 62
    18
 10
-6.804543078196833
 20
-34.00807116213734
 30
0.0
 11
-6.841376297472503
 21
-34.02165965427444
 31
0.0
  0
LINE
  5
FC
  8
BLATTANSICHT_1_GEOMETRIEAN
  6
VOLLINIE
 62
    18
 10
-6.768889544179032
 20
-33.99163465764308
 30
0.0
 11
-6.804543078196833
 21
-34.00807116213734
 31
0.0
  0
LINE
  5
FD
  8
BLATTANSICHT_1_GEOMETRIEAN
  6
VOLLINIE
 62
    18
 10
-6.734635511404266
 20
-33.97245147733809
 30
0.0
 11
-6.768889544179032
 21
-33.99163465764308
 31
0.0
  0
LINE
  5
FE
  8
BLATTANSICHT_1_GEOMETRIEAN
  6
VOLLINIE
 62
    18
 10
-6.701992167379945
 20
-33.95063989191065
 30
0.0
 11
-6.734635511404266
 21
-33.97245147733809
 31
0.0
  0
LINE
  5
FF
  8
BLATTANSICHT_1_GEOMETRIEAN
  6
VOLLINIE
 62
    18
 10
-6.671160769181495
 20
-33.92633437704105
 30
0.0
 11
-6.701992167379945
 21
-33.95063989191065
 31
0.0
  0
LINE
  5
100
  8
BLATTANSICHT_1_GEOMETRIEAN
  6
VOLLINIE
 62
    18
 10
-6.642331402635538
 20
-33.8996847843142
 30
0.0
 11
-6.671160769181495
 21
-33.92633437704105
 31
0.0
  0
LINE
  5
101
  8
BLATTANSICHT_1_GEOMETRIEAN
  6
VOLLINIE
 62
    18
 10
-6.495884796184296
 20
-49.54613139692366
 30
0.0
 11
-6.495884796184296
 21
-50.0461313973979
 31
0.0
  0
LINE
  5
102
  8
BLATTANSICHT_1_GEOMETRIEAN
  6
VOLLINIE
 62
    18
 10
-6.497426129835876
 20
-49.50690184843246
 30
0.0
 11
-6.495884796184296
 21
-49.54613139692366
 31
0.0
  0
LINE
  5
103
  8
BLATTANSICHT_1_GEOMETRIEAN
  6
VOLLINIE
 62
    18
 10
-6.502040626562672
 20
-49.46791416316142
 30
0.0
 11
-6.497426129835876
 21
-49.50690184843246
 31
0.0
  0
LINE
  5
104
  8
BLATTANSICHT_1_GEOMETRIEAN
  6
VOLLINIE
 62
    18
 10
-6.509699836915438
 20
-49.42940871316265
 30
0.0
 11
-6.502040626562672
 21
-49.46791416316142
 31
0.0
  0
LINE
  5
105
  8
BLATTANSICHT_1_GEOMETRIEAN
  6
VOLLINIE
 62
    18
 10
-6.520356539313894
 20
-49.39162289734738
 30
0.0
 11
-6.509699836915438
 21
-49.42940871316265
 31
0.0
  0
LINE
  5
106
  8
BLATTANSICHT_1_GEOMETRIEAN
  6
VOLLINIE
 62
    18
 10
-6.533945031641943
 20
-49.35478967784262
 30
0.0
 11
-6.520356539313894
 21
-49.39162289734738
 31
0.0
  0
LINE
  5
107
  8
BLATTANSICHT_1_GEOMETRIEAN
  6
VOLLINIE
 62
    18
 10
-6.550381535347769
 20
-49.31913614561628
 30
0.0
 11
-6.533945031641943
 21
-49.35478967784262
 31
0.0
  0
LINE
  5
108
  8
BLATTANSICHT_1_GEOMETRIEAN
  6
VOLLINIE
 62
    18
 10
-6.569564714592021
 20
-49.28488211449046
 30
0.0
 11
-6.550381535347769
 21
-49.31913614561628
 31
0.0
  0
LINE
  5
109
  8
BLATTANSICHT_1_GEOMETRIEAN
  6
VOLLINIE
 62
    18
 10
-6.591376298704749
 20
-49.25223877194134
 30
0.0
 11
-6.569564714592021
 21
-49.28488211449046
 31
0.0
  0
LINE
  5
10A
  8
BLATTANSICHT_1_GEOMETRIEAN
  6
VOLLINIE
 62
    18
 10
-6.615681812027195
 20
-49.22140737501519
 30
0.0
 11
-6.591376298704749
 21
-49.25223877194134
 31
0.0
  0
LINE
  5
10B
  8
BLATTANSICHT_1_GEOMETRIEAN
  6
VOLLINIE
 62
    18
 10
-6.64233140299893
 20
-49.19257800951184
 30
0.0
 11
-6.615681812027195
 21
-49.22140737501519
 31
0.0
  0
LINE
  5
10C
  8
BLATTANSICHT_1_GEOMETRIEAN
  6
VOLLINIE
 62
    18
 10
-6.615681811621515
 20
-33.87085541879129
 30
0.0
 11
-6.642331402635538
 21
-33.8996847843142
 31
0.0
  0
LINE
  5
10D
  8
BLATTANSICHT_1_GEOMETRIEAN
  6
VOLLINIE
 62
    18
 10
-6.591376298261078
 20
-33.84002402184022
 30
0.0
 11
-6.615681811621515
 21
-33.87085541879129
 31
0.0
  0
LINE
  5
10E
  8
BLATTANSICHT_1_GEOMETRIEAN
  6
VOLLINIE
 62
    18
 10
-6.569564714115256
 20
-33.8073806792614
 30
0.0
 11
-6.591376298261078
 21
-33.84002402184022
 31
0.0
  0
LINE
  5
10F
  8
BLATTANSICHT_1_GEOMETRIEAN
  6
VOLLINIE
 62
    18
 10
-6.550381534843288
 20
-33.77312664810173
 30
0.0
 11
-6.569564714115256
 21
-33.8073806792614
 31
0.0
  0
LINE
  5
110
  8
BLATTANSICHT_1_GEOMETRIEAN
  6
VOLLINIE
 62
    18
 10
-6.533945031115557
 20
-33.73747311583806
 30
0.0
 11
-6.550381534843288
 21
-33.77312664810173
 31
0.0
  0
LINE
  5
111
  8
BLATTANSICHT_1_GEOMETRIEAN
  6
VOLLINIE
 62
    18
 10
-6.520356538795258
 20
-33.70063989636542
 30
0.0
 11
-6.533945031115557
 21
-33.73747311583806
 31
0.0
  0
LINE
  5
112
  8
BLATTANSICHT_1_GEOMETRIEAN
  6
VOLLINIE
 62
    18
 10
-6.509699836399519
 20
-33.66285408058346
 30
0.0
 11
-6.520356538795258
 21
-33.70063989636542
 31
0.0
  0
LINE
  5
113
  8
BLATTANSICHT_1_GEOMETRIEAN
  6
VOLLINIE
 62
    18
 10
-6.502040626044328
 20
-33.62434863061862
 30
0.0
 11
-6.509699836399519
 21
-33.66285408058346
 31
0.0
  0
LINE
  5
114
  8
BLATTANSICHT_1_GEOMETRIEAN
  6
VOLLINIE
 62
    18
 10
-6.497426129309885
 20
-33.58536094538153
 30
0.0
 11
-6.502040626044328
 21
-33.62434863061862
 31
0.0
  0
LINE
  5
115
  8
BLATTANSICHT_1_GEOMETRIEAN
  6
VOLLINIE
 62
    18
 10
-6.495884796184296
 20
-33.54613139673133
 30
0.0
 11
-6.497426129309885
 21
-33.58536094538153
 31
0.0
  0
LINE
  5
116
  8
BLATTANSICHT_1_GEOMETRIEAN
  6
VOLLINIE
 62
    18
 10
-6.495884796184296
 20
-33.04613139739791
 30
0.0
 11
-6.495884796184296
 21
-33.54613139673133
 31
0.0
  0
LINE
  5
117
  8
BLATTANSICHT_1_GEOMETRIEAN
  6
VOLLINIE
 62
    18
 10
-4.499904376687204
 20
-32.52944050966598
 30
0.0
 11
-4.437012528187639
 21
-32.44167503702852
 31
0.0
  0
LINE
  5
118
  8
BLATTANSICHT_1_GEOMETRIEAN
  6
VOLLINIE
 62
    18
 10
-4.437012528187639
 20
-32.44167503702852
 30
0.0
 11
-4.368515199454575
 21
-32.35821080066706
 31
0.0
  0
LINE
  5
119
  8
BLATTANSICHT_1_GEOMETRIEAN
  6
VOLLINIE
 62
    18
 10
-4.368515199454575
 20
-32.35821080066706
 30
0.0
 11
-4.29470570656124
 21
-32.27940520725012
 31
0.0
  0
LINE
  5
11A
  8
BLATTANSICHT_1_GEOMETRIEAN
  6
VOLLINIE
 62
    18
 10
-4.29470570656124
 20
-32.27940520725012
 30
0.0
 11
-4.21590011340099
 21
-32.2055957147011
 31
0.0
  0
LINE
  5
11B
  8
BLATTANSICHT_1_GEOMETRIEAN
  6
VOLLINIE
 62
    18
 10
-4.132435877335745
 20
-32.13709838627341
 30
0.0
 11
-4.044670405029951
 21
-32.07420653803671
 31
0.0
  0
LINE
  5
11C
  8
BLATTANSICHT_1_GEOMETRIEAN
  6
VOLLINIE
 62
    18
 10
-4.21590011340099
 20
-32.2055957147011
 30
0.0
 11
-4.132435877335745
 21
-32.13709838627341
 31
0.0
  0
LINE
  5
11D
  8
BLATTANSICHT_1_GEOMETRIEAN
  6
VOLLINIE
 62
    18
 10
-4.044670405029951
 20
-32.07420653803671
 30
0.0
 11
-3.952979521011663
 21
-32.0171894821361
 31
0.0
  0
LINE
  5
11E
  8
BLATTANSICHT_1_GEOMETRIEAN
  6
VOLLINIE
 62
    18
 10
-3.952979521011663
 20
-32.0171894821361
 30
0.0
 11
-3.857755860351872
 21
-31.96629137484144
 31
0.0
  0
LINE
  5
11F
  8
BLATTANSICHT_1_GEOMETRIEAN
  6
VOLLINIE
 62
    18
 10
-3.857755860351872
 20
-31.96629137484144
 30
0.0
 11
-3.759407185381372
 21
-31.9217301696605
 31
0.0
  0
LINE
  5
120
  8
BLATTANSICHT_1_GEOMETRIEAN
  6
VOLLINIE
 62
    18
 10
-3.759407185381372
 20
-31.9217301696605
 30
0.0
 11
-3.658354637678552
 21
-31.8836966836502
 31
0.0
  0
LINE
  5
121
  8
BLATTANSICHT_1_GEOMETRIEAN
  6
VOLLINIE
 62
    18
 10
-3.658354637678552
 20
-31.8836966836502
 30
0.0
 11
-3.555030942193608
 21
-31.85235378323143
 31
0.0
  0
LINE
  5
122
  8
BLATTANSICHT_1_GEOMETRIEAN
  6
VOLLINIE
 62
    18
 10
-3.555030942193608
 20
-31.85235378323143
 30
0.0
 11
-3.449878546871735
 21
-31.82783568352126
 31
0.0
  0
LINE
  5
123
  8
BLATTANSICHT_1_GEOMETRIEAN
  6
VOLLINIE
 62
    18
 10
-3.127979518184304
 20
-29.79613139673133
 30
0.0
 11
-3.245884796184302
 21
-29.79613139673133
 31
0.0
  0
LINE
  5
124
  8
BLATTANSICHT_1_GEOMETRIEAN
  6
VOLLINIE
 62
    18
 10
-3.127979517887982
 20
-31.79613139673133
 30
0.0
 11
-3.020064355138368
 21
-31.79966417420023
 31
0.0
  0
LINE
  5
125
  8
BLATTANSICHT_1_GEOMETRIEAN
  6
VOLLINIE
 62
    18
 10
-2.912611301684125
 20
-31.81024737626148
 30
0.0
 11
-2.806080487992556
 21
-31.82783568478506
 31
0.0
  0
LINE
  5
126
  8
BLATTANSICHT_1_GEOMETRIEAN
  6
VOLLINIE
 62
    18
 10
-3.020064355138368
 20
-31.79966417420023
 30
0.0
 11
-2.912611301684125
 21
-31.81024737626148
 31
0.0
  0
LINE
  5
127
  8
BLATTANSICHT_1_GEOMETRIEAN
  6
VOLLINIE
 62
    18
 10
-2.806080487992556
 20
-31.82783568478506
 30
0.0
 11
-2.700928092801157
 21
-31.85235378461966
 31
0.0
  0
LINE
  5
128
  8
BLATTANSICHT_1_GEOMETRIEAN
  6
VOLLINIE
 62
    18
 10
-2.597604397452688
 20
-31.88369668514787
 30
0.0
 11
-2.496551849890912
 21
-31.92173017125238
 31
0.0
  0
LINE
  5
129
  8
BLATTANSICHT_1_GEOMETRIEAN
  6
VOLLINIE
 62
    18
 10
-2.700928092801157
 20
-31.85235378461966
 30
0.0
 11
-2.597604397452688
 21
-31.88369668514787
 31
0.0
  0
LINE
  5
12A
  8
BLATTANSICHT_1_GEOMETRIEAN
  6
VOLLINIE
 62
    18
 10
-2.496551849890912
 20
-31.92173017125238
 30
0.0
 11
-2.39820317508829
 21
-31.96629137650057
 31
0.0
  0
LINE
  5
12B
  8
BLATTANSICHT_1_GEOMETRIEAN
  6
VOLLINIE
 62
    18
 10
-2.39820317508829
 20
-31.96629137650057
 30
0.0
 11
-2.302979514596547
 21
-32.01718948384413
 31
0.0
  0
LINE
  5
12C
  8
BLATTANSICHT_1_GEOMETRIEAN
  6
VOLLINIE
 62
    18
 10
-2.302979514596547
 20
-32.01718948384413
 30
0.0
 11
-2.211288630744817
 21
-32.07420653977558
 31
0.0
  0
LINE
  5
12D
  8
BLATTANSICHT_1_GEOMETRIEAN
  6
VOLLINIE
 62
    18
 10
-2.211288630744817
 20
-32.07420653977558
 30
0.0
 11
-2.123523158619579
 21
-32.13709838801238
 31
0.0
  0
LINE
  5
12E
  8
BLATTANSICHT_1_GEOMETRIEAN
  6
VOLLINIE
 62
    18
 10
-2.123523158619579
 20
-32.13709838801238
 30
0.0
 11
-2.040058922728406
 21
-32.20559571642094
 31
0.0
  0
LINE
  5
12F
  8
BLATTANSICHT_1_GEOMETRIEAN
  6
VOLLINIE
 62
    18
 10
-2.040058922728406
 20
-32.20559571642094
 30
0.0
 11
-1.961253329734026
 21
-32.27940520893249
 31
0.0
  0
LINE
  5
130
  8
BLATTANSICHT_1_GEOMETRIEAN
  6
VOLLINIE
 62
    18
 10
-1.961253329734026
 20
-32.27940520893249
 30
0.0
 11
-1.887443837007239
 21
-32.35821080228266
 31
0.0
  0
LINE
  5
131
  8
BLATTANSICHT_1_GEOMETRIEAN
  6
VOLLINIE
 62
    18
 10
-1.887443837007239
 20
-32.35821080228266
 30
0.0
 11
-1.818946508427773
 21
-32.44167503855984
 31
0.0
  0
LINE
  5
132
  8
BLATTANSICHT_1_GEOMETRIEAN
  6
VOLLINIE
 62
    18
 10
-1.818946508427773
 20
-32.44167503855984
 30
0.0
 11
-1.756054660067322
 21
-32.52944051109695
 31
0.0
  0
LINE
  5
133
  8
BLATTANSICHT_1_GEOMETRIEAN
  6
VOLLINIE
 62
    18
 10
-1.699037602276751
 20
-32.62113139847403
 30
0.0
 11
-1.648139493538175
 21
-32.71635506272785
 31
0.0
  0
LINE
  5
134
  8
BLATTANSICHT_1_GEOMETRIEAN
  6
VOLLINIE
 62
    18
 10
-1.756054660067322
 20
-32.52944051109695
 30
0.0
 11
-1.699037602276751
 21
-32.62113139847403
 31
0.0
  0
LINE
  5
135
  8
BLATTANSICHT_1_GEOMETRIEAN
  6
VOLLINIE
 62
    18
 10
-1.648139493538175
 20
-32.71635506272785
 30
0.0
 11
-1.603578287381097
 21
-32.81470374148318
 31
0.0
  0
LINE
  5
136
  8
BLATTANSICHT_1_GEOMETRIEAN
  6
VOLLINIE
 62
    18
 10
-1.603578287900399
 20
-34.07755905476438
 30
0.0
 11
-1.648139494118344
 21
-34.17590773344247
 31
0.0
  0
LINE
  5
137
  8
BLATTANSICHT_1_GEOMETRIEAN
  6
VOLLINIE
 62
    18
 10
-1.699037602910003
 20
-34.27113139761665
 30
0.0
 11
-1.756054660745817
 21
-34.36282228491234
 31
0.0
  0
LINE
  5
138
  8
BLATTANSICHT_1_GEOMETRIEAN
  6
VOLLINIE
 62
    18
 10
-1.648139494118344
 20
-34.17590773344247
 30
0.0
 11
-1.699037602910003
 21
-34.27113139761665
 31
0.0
  0
LINE
  5
139
  8
BLATTANSICHT_1_GEOMETRIEAN
  6
VOLLINIE
 62
    18
 10
-3.020064354980541
 20
-35.09259862078328
 30
0.0
 11
-3.127979517507455
 21
-35.09613139673133
 31
0.0
  0
LINE
  5
13A
  8
BLATTANSICHT_1_GEOMETRIEAN
  6
VOLLINIE
 62
    18
 10
-2.912611301747766
 20
-35.08201541874076
 30
0.0
 11
-3.020064354980541
 21
-35.09259862078328
 31
0.0
  0
LINE
  5
13B
  8
BLATTANSICHT_1_GEOMETRIEAN
  6
VOLLINIE
 62
    18
 10
-2.806080488273594
 20
-35.0644271102647
 30
0.0
 11
-2.912611301747766
 21
-35.08201541874076
 31
0.0
  0
LINE
  5
13C
  8
BLATTANSICHT_1_GEOMETRIEAN
  6
VOLLINIE
 62
    18
 10
-2.700928093166658
 20
-35.03990901047213
 30
0.0
 11
-2.806080488273594
 21
-35.0644271102647
 31
0.0
  0
LINE
  5
13D
  8
BLATTANSICHT_1_GEOMETRIEAN
  6
VOLLINIE
 62
    18
 10
-2.597604397897972
 20
-35.00856610999714
 30
0.0
 11
-2.700928093166658
 21
-35.03990901047213
 31
0.0
  0
LINE
  5
13E
  8
BLATTANSICHT_1_GEOMETRIEAN
  6
VOLLINIE
 62
    18
 10
-2.496551850410214
 20
-34.97053262395657
 30
0.0
 11
-2.597604397897972
 21
-35.00856610999714
 31
0.0
  0
LINE
  5
13F
  8
BLATTANSICHT_1_GEOMETRIEAN
  6
VOLLINIE
 62
    18
 10
-2.378895190532905
 20
-34.91629216037878
 30
0.0
 11
-2.496551850410214
 21
-34.97053262395657
 31
0.0
  0
LINE
  5
140
  8
BLATTANSICHT_1_GEOMETRIEAN
  6
VOLLINIE
 62
    18
 10
-2.265856884548755
 20
-34.85298766699284
 30
0.0
 11
-2.378895190532905
 21
-34.91629216037878
 31
0.0
  0
LINE
  5
141
  8
BLATTANSICHT_1_GEOMETRIEAN
  6
VOLLINIE
 62
    18
 10
-2.158133851189901
 20
-34.78100943704388
 30
0.0
 11
-2.265856884548755
 21
-34.85298766699284
 31
0.0
  0
LINE
  5
142
  8
BLATTANSICHT_1_GEOMETRIEAN
  6
VOLLINIE
 62
    18
 10
-2.056390238765857
 20
-34.70080124024628
 30
0.0
 11
-2.158133851189901
 21
-34.78100943704388
 31
0.0
  0
LINE
  5
143
  8
BLATTANSICHT_1_GEOMETRIEAN
  6
VOLLINIE
 62
    18
 10
-1.961253330468424
 20
-34.61285758679576
 30
0.0
 11
-2.056390238765857
 21
-34.70080124024628
 31
0.0
  0
LINE
  5
144
  8
BLATTANSICHT_1_GEOMETRIEAN
  6
VOLLINIE
 62
    18
 10
-1.887443837732184
 20
-34.53405199353783
 30
0.0
 11
-1.961253330468424
 21
-34.61285758679576
 31
0.0
  0
LINE
  5
145
  8
BLATTANSICHT_1_GEOMETRIEAN
  6
VOLLINIE
 62
    18
 10
-1.818946509134163
 20
-34.4505877573546
 30
0.0
 11
-1.887443837732184
 21
-34.53405199353783
 31
0.0
  0
LINE
  5
146
  8
BLATTANSICHT_1_GEOMETRIEAN
  6
VOLLINIE
 62
    18
 10
-1.756054660745817
 20
-34.36282228491234
 30
0.0
 11
-1.818946509134163
 21
-34.4505877573546
 31
0.0
  0
LINE
  5
147
  8
BLATTANSICHT_1_GEOMETRIEAN
  6
VOLLINIE
 62
    18
 10
-1.756054661453144
 20
-48.72944050902292
 30
0.0
 11
-1.699037603570157
 21
-48.82113139623377
 31
0.0
  0
LINE
  5
148
  8
BLATTANSICHT_1_GEOMETRIEAN
  6
VOLLINIE
 62
    18
 10
-1.699037603570157
 20
-48.82113139623377
 30
0.0
 11
-1.64813949472317
 21
-48.91635506032492
 31
0.0
  0
LINE
  5
149
  8
BLATTANSICHT_1_GEOMETRIEAN
  6
VOLLINIE
 62
    18
 10
-1.64813949472317
 20
-48.91635506032492
 30
0.0
 11
-1.603578288441765
 21
-49.0147037389225
 31
0.0
  0
LINE
  5
14A
  8
BLATTANSICHT_1_GEOMETRIEAN
  6
VOLLINIE
 62
    18
 10
0.1220204788156971
 20
-50.04613139673132
 30
0.0
 11
0.1220204788156971
 21
-33.04613139673133
 31
0.0
  0
LINE
  5
14B
  8
BLATTANSICHT_1_GEOMETRIEAN
  6
VOLLINIE
 62
    18
 10
-1.603578288441765
 20
-49.0147037389225
 30
0.0
 11
-1.554346549268289
 21
-49.14996683174762
 31
0.0
  0
LINE
  5
14C
  8
BLATTANSICHT_1_GEOMETRIEAN
  6
VOLLINIE
 62
    18
 10
-1.554346549268289
 20
-49.14996683174762
 30
0.0
 11
-1.517091106910295
 21
-49.2890060364252
 31
0.0
  0
LINE
  5
14D
  8
BLATTANSICHT_1_GEOMETRIEAN
  6
VOLLINIE
 62
    18
 10
-1.517091106910295
 20
-49.2890060364252
 30
0.0
 11
-1.492095497773189
 21
-49.43076318067736
 31
0.0
  0
LINE
  5
14E
  8
BLATTANSICHT_1_GEOMETRIEAN
  6
VOLLINIE
 62
    18
 10
-1.492095497773189
 20
-49.43076318067736
 30
0.0
 11
-1.479549953530971
 21
-49.57415940706539
 31
0.0
  0
LINE
  5
14F
  8
BLATTANSICHT_1_GEOMETRIEAN
  6
VOLLINIE
 62
    18
 10
-1.479549953530971
 20
-49.57415940706539
 30
0.0
 11
-1.479549953348362
 21
-49.71810338374613
 31
0.0
  0
LINE
  5
150
  8
BLATTANSICHT_1_GEOMETRIEAN
  6
VOLLINIE
 62
    18
 10
-1.479549953348362
 20
-49.71810338374613
 30
0.0
 11
-1.49209549722677
 21
-49.861499610166
 31
0.0
  0
LINE
  5
151
  8
BLATTANSICHT_1_GEOMETRIEAN
  6
VOLLINIE
 62
    18
 10
-1.49209549722677
 20
-49.861499610166
 30
0.0
 11
-1.517091106004217
 21
-50.00325675448158
 31
0.0
  0
LINE
  5
152
  8
BLATTANSICHT_1_GEOMETRIEAN
  6
VOLLINIE
 62
    18
 10
-1.517091106004217
 20
-50.00325675448158
 30
0.0
 11
-1.554346548009445
 21
-50.14229595925368
 31
0.0
  0
LINE
  5
153
  8
BLATTANSICHT_1_GEOMETRIEAN
  6
VOLLINIE
 62
    18
 10
-1.554346548009445
 20
-50.14229595925368
 30
0.0
 11
-1.603578286839742
 21
-50.27755905220371
 31
0.0
  0
LINE
  5
154
  8
BLATTANSICHT_1_GEOMETRIEAN
  6
VOLLINIE
 62
    18
 10
-1.603578286839742
 20
-50.27755905220371
 30
0.0
 11
-1.648139492933349
 21
-50.37590773103953
 31
0.0
  0
LINE
  5
155
  8
BLATTANSICHT_1_GEOMETRIEAN
  6
VOLLINIE
 62
    18
 10
-1.648139492933349
 20
-50.37590773103953
 30
0.0
 11
-1.699037601616586
 21
-50.47113139537639
 31
0.0
  0
LINE
  5
156
  8
BLATTANSICHT_1_GEOMETRIEAN
  6
VOLLINIE
 62
    18
 10
-1.699037601616586
 20
-50.47113139537639
 30
0.0
 11
-1.756054659359995
 21
-50.5628222828383
 31
0.0
  0
LINE
  5
157
  8
BLATTANSICHT_1_GEOMETRIEAN
  6
VOLLINIE
 62
    18
 10
-1.756054659359995
 20
-50.5628222828383
 30
0.0
 11
-1.818946507691367
 21
-50.65058775547431
 31
0.0
  0
LINE
  5
158
  8
BLATTANSICHT_1_GEOMETRIEAN
  6
VOLLINIE
 62
    18
 10
-1.818946507691367
 20
-50.65058775547431
 30
0.0
 11
-1.887443836251499
 21
-50.73405199184943
 31
0.0
  0
LINE
  5
159
  8
BLATTANSICHT_1_GEOMETRIEAN
  6
VOLLINIE
 62
    18
 10
-1.887443836251499
 20
-50.73405199184943
 30
0.0
 11
-1.961253328968428
 21
-50.81285758529575
 31
0.0
  0
LINE
  5
15A
  8
BLATTANSICHT_1_GEOMETRIEAN
  6
VOLLINIE
 62
    18
 10
-1.961253328968428
 20
-50.81285758529575
 30
0.0
 11
-2.040058921972519
 21
-50.88666707791002
 31
0.0
  0
LINE
  5
15B
  8
BLATTANSICHT_1_GEOMETRIEAN
  6
VOLLINIE
 62
    18
 10
-2.040058921972519
 20
-50.88666707791002
 30
0.0
 11
-2.12352315788332
 21
-50.9551644064165
 31
0.0
  0
LINE
  5
15C
  8
BLATTANSICHT_1_GEOMETRIEAN
  6
VOLLINIE
 62
    18
 10
-2.12352315788332
 20
-50.9551644064165
 30
0.0
 11
-2.211288630037501
 21
-51.01805625474564
 31
0.0
  0
LINE
  5
15D
  8
BLATTANSICHT_1_GEOMETRIEAN
  6
VOLLINIE
 62
    18
 10
-2.211288630037501
 20
-51.01805625474564
 30
0.0
 11
-2.302979513936246
 21
-51.0750733107685
 31
0.0
  0
LINE
  5
15E
  8
BLATTANSICHT_1_GEOMETRIEAN
  6
VOLLINIE
 62
    18
 10
-2.302979513936246
 20
-51.0750733107685
 30
0.0
 11
-2.39820317448361
 21
-51.12597141819508
 31
0.0
  0
LINE
  5
15F
  8
BLATTANSICHT_1_GEOMETRIEAN
  6
VOLLINIE
 62
    18
 10
-2.39820317448361
 20
-51.12597141819508
 30
0.0
 11
-2.496551849349546
 21
-51.17053262351723
 31
0.0
  0
LINE
  5
160
  8
BLATTANSICHT_1_GEOMETRIEAN
  6
VOLLINIE
 62
    18
 10
-2.496551849349546
 20
-51.17053262351723
 30
0.0
 11
-2.597604396988476
 21
-51.20856610968841
 31
0.0
  0
LINE
  5
161
  8
BLATTANSICHT_1_GEOMETRIEAN
  6
VOLLINIE
 62
    18
 10
-2.700928092420134
 20
-51.23990901027209
 30
0.0
 11
-2.806080487699573
 21
-51.26442711015051
 31
0.0
  0
LINE
  5
162
  8
BLATTANSICHT_1_GEOMETRIEAN
  6
VOLLINIE
 62
    18
 10
-2.597604396988476
 20
-51.20856610968841
 30
0.0
 11
-2.700928092420134
 21
-51.23990901027209
 31
0.0
  0
LINE
  5
163
  8
BLATTANSICHT_1_GEOMETRIEAN
  6
VOLLINIE
 62
    18
 10
-2.07900442684321
 20
-48.37363396628868
 30
0.0
 11
-2.049338034387788
 21
-48.39798054546537
 31
0.0
  0
LINE
  5
164
  8
BLATTANSICHT_1_GEOMETRIEAN
  6
VOLLINIE
 62
    18
 10
-2.179685825991306
 20
-48.29685278870735
 30
0.0
 11
-2.143591586530438
 21
-48.3227175550729
 31
0.0
  0
LINE
  5
165
  8
BLATTANSICHT_1_GEOMETRIEAN
  6
VOLLINIE
 62
    18
 10
-2.282013504807789
 20
-48.23022698583058
 30
0.0
 11
-2.244304909871462
 21
-48.253675697156
 31
0.0
  0
LINE
  5
166
  8
BLATTANSICHT_1_GEOMETRIEAN
  6
VOLLINIE
 62
    18
 10
-2.387616713347318
 20
-48.17194995746804
 30
0.0
 11
-2.353770575949455
 21
-48.19004109493999
 31
0.0
  0
LINE
  5
167
  8
BLATTANSICHT_1_GEOMETRIEAN
  6
VOLLINIE
 62
    18
 10
-4.583578468587865
 20
-32.67100320098786
 30
0.0
 11
-4.565408775323061
 21
-32.63701009572032
 31
0.0
  0
LINE
  5
168
  8
BLATTANSICHT_1_GEOMETRIEAN
  6
VOLLINIE
 62
    18
 10
-4.640917812504046
 20
-32.78940449952999
 30
0.0
 11
-4.623738427773431
 21
-32.75148878910011
 31
0.0
  0
LINE
  5
169
  8
BLATTANSICHT_1_GEOMETRIEAN
  6
VOLLINIE
 62
    18
 10
-4.693066687229465
 20
-32.92648743739546
 30
0.0
 11
-4.667376856296146
 21
-32.85590520604226
 31
0.0
  0
LINE
  5
16A
  8
BLATTANSICHT_1_GEOMETRIEAN
  6
VOLLINIE
 62
    18
 10
-4.731767357841566
 20
-33.06250633949565
 30
0.0
 11
-4.712387263024611
 21
-32.99017884001065
 31
0.0
  0
LINE
  5
16B
  8
BLATTANSICHT_1_GEOMETRIEAN
  6
VOLLINIE
 62
    18
 10
-4.75867723078252
 20
-33.20135016319056
 30
0.0
 11
-4.745701616466807
 21
-33.12776179660007
 31
0.0
  0
LINE
  5
16C
  8
BLATTANSICHT_1_GEOMETRIEAN
  6
VOLLINIE
 62
    18
 10
-4.773595716982763
 20
-33.34200247987179
 30
0.0
 11
-4.767090894834936
 21
-33.26765202130768
 31
0.0
  0
LINE
  5
16D
  8
BLATTANSICHT_1_GEOMETRIEAN
  6
VOLLINIE
 62
    18
 10
-4.776409083718007
 20
-33.48343409987978
 30
0.0
 11
-4.776409083748677
 21
-33.4088286954161
 31
0.0
  0
LINE
  5
16E
  8
BLATTANSICHT_1_GEOMETRIEAN
  6
VOLLINIE
 62
    18
 10
-4.767090895093718
 20
-33.62461077039865
 30
0.0
 11
-4.773595716717607
 21
-33.55026031852745
 31
0.0
  0
LINE
  5
16F
  8
BLATTANSICHT_1_GEOMETRIEAN
  6
VOLLINIE
 62
    18
 10
-4.74570161773992
 20
-33.7645009910192
 30
0.0
 11
-4.758677229754382
 21
-33.69091263783366
 31
0.0
  0
LINE
  5
170
  8
BLATTANSICHT_1_GEOMETRIEAN
  6
VOLLINIE
 62
    18
 10
-4.712387266208601
 20
-33.90208394300406
 30
0.0
 11
-4.73176735568639
 21
-33.82975646368299
 31
0.0
  0
LINE
  5
171
  8
BLATTANSICHT_1_GEOMETRIEAN
  6
VOLLINIE
 62
    18
 10
-4.667376862509503
 20
-34.036357571813
 30
0.0
 11
-4.693066683675146
 21
-33.96577536747685
 31
0.0
  0
LINE
  5
172
  8
BLATTANSICHT_1_GEOMETRIEAN
  6
VOLLINIE
 62
    18
 10
-4.623738434771482
 20
-34.14077399042038
 30
0.0
 11
-4.640917806379925
 21
-34.1028583090333
 31
0.0
  0
LINE
  5
173
  8
BLATTANSICHT_1_GEOMETRIEAN
  6
VOLLINIE
 62
    18
 10
-4.565408781368166
 20
-34.25525268790593
 30
0.0
 11
-4.583578455329589
 21
-34.22125961881635
 31
0.0
  0
LINE
  5
174
  8
BLATTANSICHT_1_GEOMETRIEAN
  6
VOLLINIE
 62
    18
 10
-0.002046177872641
 20
-50.93553611446561
 30
0.0
 11
0.0000000000708376
 21
-50.92831285658198
 31
0.0
  0
LINE
  5
175
  8
BLATTANSICHT_1_GEOMETRIEAN
  6
VOLLINIE
 62
    18
 10
-0.0627276061526541
 20
-51.12628449504024
 30
0.0
 11
-0.002046177872641
 21
-50.93553611446561
 31
0.0
  0
LINE
  5
176
  8
BLATTANSICHT_1_GEOMETRIEAN
  6
VOLLINIE
 62
    18
 10
-2.583584290578005
 20
-53.25021220632654
 30
0.0
 11
-2.530793585280458
 21
-53.24079397070399
 31
0.0
  0
LINE
  5
177
  8
BLATTANSICHT_1_GEOMETRIEAN
  6
VOLLINIE
 62
    18
 10
-2.728592573523984
 20
-53.27149805316511
 30
0.0
 11
-2.583584290578005
 21
-53.25021220632654
 31
0.0
  0
LINE
  5
178
  8
BLATTANSICHT_1_GEOMETRIEAN
  6
VOLLINIE
 62
    18
 10
-2.854815310554145
 20
-53.28463125227459
 30
0.0
 11
-2.728592573523984
 21
-53.27149805316511
 31
0.0
  0
LINE
  5
179
  8
BLATTANSICHT_1_GEOMETRIEAN
  6
VOLLINIE
 62
    18
 10
-2.530793585280458
 20
-53.24079397070399
 30
0.0
 11
-2.335259927832082
 21
-53.1979714388451
 31
0.0
  0
LINE
  5
17A
  8
BLATTANSICHT_1_GEOMETRIEAN
  6
VOLLINIE
 62
    18
 10
-2.335259927832082
 20
-53.1979714388451
 30
0.0
 11
-2.316205962046045
 21
-53.19311784274547
 31
0.0
  0
LINE
  5
17B
  8
BLATTANSICHT_1_GEOMETRIEAN
  6
VOLLINIE
 62
    18
 10
-1.590425458467278
 20
-52.90942102816012
 30
0.0
 11
-1.555893132526565
 21
-52.89060751593677
 31
0.0
  0
LINE
  5
17C
  8
BLATTANSICHT_1_GEOMETRIEAN
  6
VOLLINIE
 62
    18
 10
-1.417074988832902
 20
-52.80933708785257
 30
0.0
 11
-1.322376258235988
 21
-52.74840763428129
 31
0.0
  0
LINE
  5
17D
  8
BLATTANSICHT_1_GEOMETRIEAN
  6
VOLLINIE
 62
    18
 10
-1.555893132526565
 20
-52.89060751593677
 30
0.0
 11
-1.417074988832902
 21
-52.80933708785257
 31
0.0
  0
LINE
  5
17E
  8
BLATTANSICHT_1_GEOMETRIEAN
  6
VOLLINIE
 62
    18
 10
-1.250214566107491
 20
-52.69877136188904
 30
0.0
 11
-1.149504871425872
 21
-52.62452975002211
 31
0.0
  0
LINE
  5
17F
  8
BLATTANSICHT_1_GEOMETRIEAN
  6
VOLLINIE
 62
    18
 10
-1.322376258235988
 20
-52.74840763428129
 30
0.0
 11
-1.250214566107491
 21
-52.69877136188904
 31
0.0
  0
LINE
  5
180
  8
BLATTANSICHT_1_GEOMETRIEAN
  6
VOLLINIE
 62
    18
 10
-1.09047714902847
 20
-52.57814326393975
 30
0.0
 11
-0.9851056167978873
 21
-52.48961076817023
 31
0.0
  0
LINE
  5
181
  8
BLATTANSICHT_1_GEOMETRIEAN
  6
VOLLINIE
 62
    18
 10
-1.149504871425872
 20
-52.62452975002211
 30
0.0
 11
-1.09047714902847
 21
-52.57814326393975
 31
0.0
  0
LINE
  5
182
  8
BLATTANSICHT_1_GEOMETRIEAN
  6
VOLLINIE
 62
    18
 10
-0.9384686763330045
 20
-52.44791037769847
 30
0.0
 11
-0.8298824771994178
 21
-52.3442284325191
 31
0.0
  0
LINE
  5
183
  8
BLATTANSICHT_1_GEOMETRIEAN
  6
VOLLINIE
 62
    18
 10
-0.9851056167978873
 20
-52.48961076817023
 30
0.0
 11
-0.9384686763330045
 21
-52.44791037769847
 31
0.0
  0
LINE
  5
184
  8
BLATTANSICHT_1_GEOMETRIEAN
  6
VOLLINIE
 62
    18
 10
-0.7947657682248747
 20
-52.30856672111084
 30
0.0
 11
-0.684500143231757
 21
-52.18900529401732
 31
0.0
  0
LINE
  5
185
  8
BLATTANSICHT_1_GEOMETRIEAN
  6
VOLLINIE
 62
    18
 10
-0.8298824771994178
 20
-52.3442284325191
 30
0.0
 11
-0.7947657682248747
 21
-52.30856672111084
 31
0.0
  0
LINE
  5
186
  8
BLATTANSICHT_1_GEOMETRIEAN
  6
VOLLINIE
 62
    18
 10
-0.6599135390565116
 20
-52.16064087239512
 30
0.0
 11
-0.5495811628892628
 21
-52.02460604067483
 31
0.0
  0
LINE
  5
187
  8
BLATTANSICHT_1_GEOMETRIEAN
  6
VOLLINIE
 62
    18
 10
-0.684500143231757
 20
-52.18900529401732
 30
0.0
 11
-0.6599135390565116
 21
-52.16064087239512
 31
0.0
  0
LINE
  5
188
  8
BLATTANSICHT_1_GEOMETRIEAN
  6
VOLLINIE
 62
    18
 10
-0.534423529523533
 20
-52.00469396496392
 30
0.0
 11
-0.4257032799483172
 21
-51.85173465532058
 31
0.0
  0
LINE
  5
189
  8
BLATTANSICHT_1_GEOMETRIEAN
  6
VOLLINIE
 62
    18
 10
-0.5495811628892628
 20
-52.02460604067483
 30
0.0
 11
-0.534423529523533
 21
-52.00469396496392
 31
0.0
  0
LINE
  5
18A
  8
BLATTANSICHT_1_GEOMETRIEAN
  6
VOLLINIE
 62
    18
 10
-0.4187717662156665
 20
-51.84131755885297
 30
0.0
 11
-0.3133969558848836
 21
-51.67113139673133
 31
0.0
  0
LINE
  5
18B
  8
BLATTANSICHT_1_GEOMETRIEAN
  6
VOLLINIE
 62
    18
 10
-0.4257032799483172
 20
-51.85173465532058
 30
0.0
 11
-0.4187717662156665
 21
-51.84131755885297
 31
0.0
  0
LINE
  5
18C
  8
BLATTANSICHT_1_GEOMETRIEAN
  6
VOLLINIE
 62
    18
 10
-0.3133969558848836
 20
-51.67113139673133
 30
0.0
 11
-0.2923674963606886
 21
-51.63415043210109
 31
0.0
  0
LINE
  5
18D
  8
BLATTANSICHT_1_GEOMETRIEAN
  6
VOLLINIE
 62
    18
 10
-0.2186988212803508
 20
-51.49478105300508
 30
0.0
 11
-0.1765142039611379
 21
-51.40677554338394
 31
0.0
  0
LINE
  5
18E
  8
BLATTANSICHT_1_GEOMETRIEAN
  6
VOLLINIE
 62
    18
 10
-0.2923674963606886
 20
-51.63415043210109
 30
0.0
 11
-0.2186988212803508
 21
-51.49478105300508
 31
0.0
  0
LINE
  5
18F
  8
BLATTANSICHT_1_GEOMETRIEAN
  6
VOLLINIE
 62
    18
 10
0.0467775145343928
 20
-50.74141391715246
 30
0.0
 11
0.0595726429302647
 21
-50.68017494008856
 31
0.0
  0
LINE
  5
190
  8
BLATTANSICHT_1_GEOMETRIEAN
  6
VOLLINIE
 62
    18
 10
0.0000000000708376
 20
-50.92831285658198
 30
0.0
 11
0.0467775145343928
 21
-50.74141391715246
 31
0.0
  0
LINE
  5
191
  8
BLATTANSICHT_1_GEOMETRIEAN
  6
VOLLINIE
 62
    18
 10
0.0835582660797908
 20
-50.54465427508707
 30
0.0
 11
0.094216280687205
 21
-50.47034151970699
 31
0.0
  0
LINE
  5
192
  8
BLATTANSICHT_1_GEOMETRIEAN
  6
VOLLINIE
 62
    18
 10
0.0595726429302647
 20
-50.68017494008856
 30
0.0
 11
0.0835582660797908
 21
-50.54465427508707
 31
0.0
  0
LINE
  5
193
  8
BLATTANSICHT_1_GEOMETRIEAN
  6
VOLLINIE
 62
    18
 10
0.1081565547745609
 20
-50.34600356498706
 30
0.0
 11
0.115061981544186
 21
-50.25869156647799
 31
0.0
  0
LINE
  5
194
  8
BLATTANSICHT_1_GEOMETRIEAN
  6
VOLLINIE
 62
    18
 10
0.094216280687205
 20
-50.47034151970699
 30
0.0
 11
0.1081565547745609
 21
-50.34600356498706
 31
0.0
  0
LINE
  5
195
  8
BLATTANSICHT_1_GEOMETRIEAN
  6
VOLLINIE
 62
    18
 10
0.1204790708841355
 20
-50.14621533703889
 30
0.0
 11
0.1220204788156971
 21
-50.04613139673132
 31
0.0
  0
LINE
  5
196
  8
BLATTANSICHT_1_GEOMETRIEAN
  6
VOLLINIE
 62
    18
 10
0.115061981544186
 20
-50.25869156647799
 30
0.0
 11
0.1204790708841355
 21
-50.14621533703889
 31
0.0
  0
LINE
  5
197
  8
BLATTANSICHT_1_GEOMETRIEAN
  6
VOLLINIE
 62
    18
 10
-1.271495919931763
 20
-52.71340969760622
 30
0.0
 11
-1.263856098887276
 21
-52.70837553919129
 31
0.0
  0
LINE
  5
198
  8
BLATTANSICHT_1_GEOMETRIEAN
  6
VOLLINIE
 62
    18
 10
-1.263856098887276
 20
-52.70837553919129
 30
0.0
 11
-1.250214566107491
 21
-52.69877136188904
 31
0.0
  0
LINE
  5
199
  8
BLATTANSICHT_1_GEOMETRIEAN
  6
VOLLINIE
 62
    18
 10
-1.502979516944746
 20
-52.86071395775605
 30
0.0
 11
-1.417074988832902
 21
-52.80933708785257
 31
0.0
  0
LINE
  5
19A
  8
BLATTANSICHT_1_GEOMETRIEAN
  6
VOLLINIE
 62
    18
 10
-1.541099351031213
 20
-52.88194656627182
 30
0.0
 11
-1.502979516944746
 21
-52.86071395775605
 31
0.0
  0
LINE
  5
19B
  8
BLATTANSICHT_1_GEOMETRIEAN
  6
VOLLINIE
 62
    18
 10
-1.03891978564996
 20
-52.53577583518951
 30
0.0
 11
-1.011374014216679
 21
-52.51168130974936
 31
0.0
  0
LINE
  5
19C
  8
BLATTANSICHT_1_GEOMETRIEAN
  6
VOLLINIE
 62
    18
 10
-1.09047714902847
 20
-52.57814326393975
 30
0.0
 11
-1.03891978564996
 21
-52.53577583518951
 31
0.0
  0
LINE
  5
19D
  8
BLATTANSICHT_1_GEOMETRIEAN
  6
VOLLINIE
 62
    18
 10
-1.754470166223787
 20
-52.99163170353372
 30
0.0
 11
-1.590425458467278
 21
-52.90942102816012
 31
0.0
  0
LINE
  5
19E
  8
BLATTANSICHT_1_GEOMETRIEAN
  6
VOLLINIE
 62
    18
 10
-1.769608397302263
 20
-52.99864353014478
 30
0.0
 11
-1.754470166223787
 21
-52.99163170353372
 31
0.0
  0
LINE
  5
19F
  8
BLATTANSICHT_1_GEOMETRIEAN
  6
VOLLINIE
 62
    18
 10
-0.135036584863213
 20
-51.31293548493255
 30
0.0
 11
-0.0788576768278373
 21
-51.17101183097845
 31
0.0
  0
LINE
  5
1A0
  8
BLATTANSICHT_1_GEOMETRIEAN
  6
VOLLINIE
 62
    18
 10
-0.1765142039611379
 20
-51.40677554338394
 30
0.0
 11
-0.135036584863213
 21
-51.31293548493255
 31
0.0
  0
LINE
  5
1A1
  8
BLATTANSICHT_1_GEOMETRIEAN
  6
VOLLINIE
 62
    18
 10
-0.0788576768278373
 20
-51.17101183097845
 30
0.0
 11
-0.0627276061526541
 21
-51.12628449504024
 31
0.0
  0
LINE
  5
1A2
  8
BLATTANSICHT_1_GEOMETRIEAN
  6
VOLLINIE
 62
    18
 10
-1.769608397302263
 20
-52.99864353014478
 30
0.0
 11
-1.590425458467278
 21
-52.90942102816012
 31
0.0
  0
LINE
  5
1A3
  8
BLATTANSICHT_1_GEOMETRIEAN
  6
VOLLINIE
 62
    18
 10
-1.800535680692576
 20
-53.01267700658909
 30
0.0
 11
-1.769608397302263
 21
-52.99864353014478
 31
0.0
  0
LINE
  5
1A4
  8
BLATTANSICHT_1_GEOMETRIEAN
  6
VOLLINIE
 62
    18
 10
-2.016414051028642
 20
-53.10013241342837
 30
0.0
 11
-1.953944103076065
 21
-53.07666614229547
 31
0.0
  0
LINE
  5
1A5
  8
BLATTANSICHT_1_GEOMETRIEAN
  6
VOLLINIE
 62
    18
 10
-2.03244198300232
 20
-53.10559611255383
 30
0.0
 11
-2.016414051028642
 21
-53.10013241342837
 31
0.0
  0
LINE
  5
1A6
  8
BLATTANSICHT_1_GEOMETRIEAN
  6
VOLLINIE
 62
    18
 10
-2.142733327316918
 20
-53.14319289811959
 30
0.0
 11
-2.054572564538873
 21
-53.11375221901497
 31
0.0
  0
LINE
  5
1A7
  8
BLATTANSICHT_1_GEOMETRIEAN
  6
VOLLINIE
 62
    18
 10
-2.316205962046045
 20
-53.19311784274547
 30
0.0
 11
-2.142733327316918
 21
-53.14319289811959
 31
0.0
  0
LINE
  5
1A8
  8
BLATTANSICHT_1_GEOMETRIEAN
  6
VOLLINIE
 62
    18
 10
-1.953944103076065
 20
-53.07666614229547
 30
0.0
 11
-1.800535680692576
 21
-53.01267700658909
 31
0.0
  0
LINE
  5
1A9
  8
BLATTANSICHT_1_GEOMETRIEAN
  6
VOLLINIE
 62
    18
 10
-2.054572564538873
 20
-53.11375221901497
 30
0.0
 11
-1.953944103076065
 21
-53.07666614229547
 31
0.0
  0
LINE
  5
1AA
  8
BLATTANSICHT_1_GEOMETRIEAN
  6
VOLLINIE
 62
    18
 10
-2.286817620229346
 20
-53.18539033152293
 30
0.0
 11
-2.142733327316918
 21
-53.14319289811959
 31
0.0
  0
LINE
  5
1AB
  8
BLATTANSICHT_1_GEOMETRIEAN
  6
VOLLINIE
 62
    18
 10
-2.312824303931684
 20
-53.19214461089038
 30
0.0
 11
-2.286817620229346
 21
-53.18539033152293
 31
0.0
  0
LINE
  5
1AC
  8
BLATTANSICHT_1_GEOMETRIEAN
  6
VOLLINIE
 62
    18
 10
-2.567338347063691
 20
-53.24731381497022
 30
0.0
 11
-2.56362293938958
 21
-53.24675659358041
 31
0.0
  0
LINE
  5
1AD
  8
BLATTANSICHT_1_GEOMETRIEAN
  6
VOLLINIE
 62
    18
 10
-2.56362293938958
 20
-53.24675659358041
 30
0.0
 11
-2.530793585280458
 21
-53.24079397070399
 31
0.0
  0
LINE
  5
1AE
  8
BLATTANSICHT_1_GEOMETRIEAN
  6
VOLLINIE
 62
    18
 10
-2.844723352890302
 20
-53.28376416529243
 30
0.0
 11
-2.728592573523984
 21
-53.27149805316511
 31
0.0
  0
LINE
  5
1AF
  8
BLATTANSICHT_1_GEOMETRIEAN
  6
VOLLINIE
 62
    18
 10
-2.850930220226351
 20
-53.28422701714205
 30
0.0
 11
-2.844723352890302
 21
-53.28376416529243
 31
0.0
  0
LINE
  5
1B0
  8
BLATTANSICHT_1_GEOMETRIEAN
  6
VOLLINIE
 62
    18
 10
-2.927906573248999
 20
-53.2899672151267
 30
0.0
 11
-2.854815310554145
 21
-53.28463125227459
 31
0.0
  0
LINE
  5
1B1
  8
BLATTANSICHT_1_GEOMETRIEAN
  6
VOLLINIE
 62
    18
 10
-3.127979518184304
 20
-53.29613139673132
 30
0.0
 11
-2.927906573248999
 21
-53.2899672151267
 31
0.0
  0
LINE
  5
1B2
  8
BLATTANSICHT_1_GEOMETRIEAN
  6
VOLLINIE
 62
    18
 10
-2.316205962046045
 20
-53.19311784274547
 30
0.0
 11
-2.583584290578005
 21
-53.25021220632654
 31
0.0
  0
LINE
  5
1B3
  8
BLATTANSICHT_1_GEOMETRIEAN
  6
VOLLINIE
 62
    18
 10
-2.583584290578005
 20
-53.25021220632654
 30
0.0
 11
-2.854815310554145
 21
-53.28463125227459
 31
0.0
  0
LINE
  5
1B4
  8
BLATTANSICHT_1_GEOMETRIEAN
  6
VOLLINIE
 62
    18
 10
-1.555893132526565
 20
-52.89060751593677
 30
0.0
 11
-1.800535680692576
 21
-53.01267700658909
 31
0.0
  0
LINE
  5
1B5
  8
BLATTANSICHT_1_GEOMETRIEAN
  6
VOLLINIE
 62
    18
 10
-1.322376258235988
 20
-52.74840763428129
 30
0.0
 11
-1.555893132526565
 21
-52.89060751593677
 31
0.0
  0
LINE
  5
1B6
  8
BLATTANSICHT_1_GEOMETRIEAN
  6
VOLLINIE
 62
    18
 10
-2.054572564538873
 20
-53.11375221901497
 30
0.0
 11
-2.316205962046045
 21
-53.19311784274547
 31
0.0
  0
LINE
  5
1B7
  8
BLATTANSICHT_1_GEOMETRIEAN
  6
VOLLINIE
 62
    18
 10
-1.800535680692576
 20
-53.01267700658909
 30
0.0
 11
-2.054572564538873
 21
-53.11375221901497
 31
0.0
  0
LINE
  5
1B8
  8
BLATTANSICHT_1_GEOMETRIEAN
  6
VOLLINIE
 62
    18
 10
-2.854815310554145
 20
-53.28463125227459
 30
0.0
 11
-3.127979518184304
 21
-53.29613139673132
 31
0.0
  0
LINE
  5
1B9
  8
BLATTANSICHT_1_GEOMETRIEAN
  6
VOLLINIE
 62
    18
 10
-1.149504871425872
 20
-52.62452975002211
 30
0.0
 11
-1.322376258235988
 21
-52.74840763428129
 31
0.0
  0
LINE
  5
1BA
  8
BLATTANSICHT_1_GEOMETRIEAN
  6
VOLLINIE
 62
    18
 10
-0.9851056167978873
 20
-52.48961076817023
 30
0.0
 11
-1.149504871425872
 21
-52.62452975002211
 31
0.0
  0
LINE
  5
1BB
  8
BLATTANSICHT_1_GEOMETRIEAN
  6
VOLLINIE
 62
    18
 10
-0.8298824771994178
 20
-52.3442284325191
 30
0.0
 11
-0.9851056167978873
 21
-52.48961076817023
 31
0.0
  0
LINE
  5
1BC
  8
BLATTANSICHT_1_GEOMETRIEAN
  6
VOLLINIE
 62
    18
 10
-0.684500143231757
 20
-52.18900529401732
 30
0.0
 11
-0.8298824771994178
 21
-52.3442284325191
 31
0.0
  0
LINE
  5
1BD
  8
BLATTANSICHT_1_GEOMETRIEAN
  6
VOLLINIE
 62
    18
 10
-0.5495811628892628
 20
-52.02460604067483
 30
0.0
 11
-0.684500143231757
 21
-52.18900529401732
 31
0.0
  0
LINE
  5
1BE
  8
BLATTANSICHT_1_GEOMETRIEAN
  6
VOLLINIE
 62
    18
 10
-0.4257032799483172
 20
-51.85173465532058
 30
0.0
 11
-0.5495811628892628
 21
-52.02460604067483
 31
0.0
  0
LINE
  5
1BF
  8
BLATTANSICHT_1_GEOMETRIEAN
  6
VOLLINIE
 62
    18
 10
-0.2923674963606886
 20
-51.63415043210109
 30
0.0
 11
-0.4257032799483172
 21
-51.85173465532058
 31
0.0
  0
LINE
  5
1C0
  8
BLATTANSICHT_1_GEOMETRIEAN
  6
VOLLINIE
 62
    18
 10
-0.1765142039611379
 20
-51.40677554338394
 30
0.0
 11
-0.2923674963606886
 21
-51.63415043210109
 31
0.0
  0
LINE
  5
1C1
  8
BLATTANSICHT_1_GEOMETRIEAN
  6
VOLLINIE
 62
    18
 10
0.0595726429302647
 20
-50.68017494008856
 30
0.0
 11
0.0000000000708376
 21
-50.92831285658198
 31
0.0
  0
LINE
  5
1C2
  8
BLATTANSICHT_1_GEOMETRIEAN
  6
VOLLINIE
 62
    18
 10
-0.0788576768278373
 20
-51.17101183097845
 30
0.0
 11
-0.1765142039611379
 21
-51.40677554338394
 31
0.0
  0
LINE
  5
1C3
  8
BLATTANSICHT_1_GEOMETRIEAN
  6
VOLLINIE
 62
    18
 10
0.0000000000708376
 20
-50.92831285658198
 30
0.0
 11
-0.0788576768278373
 21
-51.17101183097845
 31
0.0
  0
LINE
  5
1C4
  8
BLATTANSICHT_1_GEOMETRIEAN
  6
VOLLINIE
 62
    18
 10
0.094216280687205
 20
-50.47034151970699
 30
0.0
 11
0.0595726429302647
 21
-50.68017494008856
 31
0.0
  0
LINE
  5
1C5
  8
BLATTANSICHT_1_GEOMETRIEAN
  6
VOLLINIE
 62
    18
 10
0.115061981544186
 20
-50.25869156647799
 30
0.0
 11
0.094216280687205
 21
-50.47034151970699
 31
0.0
  0
LINE
  5
1C6
  8
BLATTANSICHT_1_GEOMETRIEAN
  6
VOLLINIE
 62
    18
 10
0.1220204788156971
 20
-50.04613139673132
 30
0.0
 11
0.115061981544186
 21
-50.25869156647799
 31
0.0
  0
LINE
  5
1C7
  8
BLATTANSICHT_1_GEOMETRIEAN
  6
VOLLINIE
 62
    18
 10
-3.645271740844622
 20
-53.2714980531651
 30
0.0
 11
-3.529140959854725
 21
-53.28376416541689
 31
0.0
  0
LINE
  5
1C8
  8
BLATTANSICHT_1_GEOMETRIEAN
  6
VOLLINIE
 62
    18
 10
-3.529140959854725
 20
-53.28376416541689
 30
0.0
 11
-3.517826884351055
 21
-53.28460786651235
 31
0.0
  0
LINE
  5
1C9
  8
BLATTANSICHT_1_GEOMETRIEAN
  6
VOLLINIE
 62
    18
 10
-4.783438855901339
 20
-52.90942102816011
 30
0.0
 11
-4.777924189151857
 21
-52.91237550689678
 31
0.0
  0
LINE
  5
1CA
  8
BLATTANSICHT_1_GEOMETRIEAN
  6
VOLLINIE
 62
    18
 10
-4.956789325535704
 20
-52.80933708785256
 30
0.0
 11
-4.783438855901339
 21
-52.90942102816011
 31
0.0
  0
LINE
  5
1CB
  8
BLATTANSICHT_1_GEOMETRIEAN
  6
VOLLINIE
 62
    18
 10
-6.081496816887713
 20
-51.63415043553803
 30
0.0
 11
-6.060467358117003
 21
-51.6711313973665
 31
0.0
  0
LINE
  5
1CC
  8
BLATTANSICHT_1_GEOMETRIEAN
  6
VOLLINIE
 62
    18
 10
-6.155165493088255
 20
-51.49478105300507
 30
0.0
 11
-6.081496816887713
 21
-51.63415043553803
 31
0.0
  0
LINE
  5
1CD
  8
BLATTANSICHT_1_GEOMETRIEAN
  6
VOLLINIE
 62
    18
 10
-5.617943030145915
 20
-52.26780638059637
 30
0.0
 11
-5.579098546143731
 21
-52.30856672111083
 31
0.0
  0
LINE
  5
1CE
  8
BLATTANSICHT_1_GEOMETRIEAN
  6
VOLLINIE
 62
    18
 10
-6.160721205645443
 20
-51.48356964030855
 30
0.0
 11
-6.155165493088255
 21
-51.49478105300507
 31
0.0
  0
LINE
  5
1CF
  8
BLATTANSICHT_1_GEOMETRIEAN
  6
VOLLINIE
 62
    18
 10
-6.155165493088255
 20
-51.49478105300507
 30
0.0
 11
-6.060467357750283
 21
-51.67113139800167
 31
0.0
  0
LINE
  5
1D0
  8
BLATTANSICHT_1_GEOMETRIEAN
  6
VOLLINIE
 62
    18
 10
-6.485866130287733
 20
-50.30112345812739
 30
0.0
 11
-6.482020869143155
 21
-50.34600356498704
 31
0.0
  0
LINE
  5
1D1
  8
BLATTANSICHT_1_GEOMETRIEAN
  6
VOLLINIE
 62
    18
 10
-6.482020869143155
 20
-50.34600356498704
 30
0.0
 11
-6.457422580448396
 21
-50.54465427508705
 31
0.0
  0
LINE
  5
1D2
  8
BLATTANSICHT_1_GEOMETRIEAN
  6
VOLLINIE
 62
    18
 10
-6.457422580448396
 20
-50.54465427508705
 30
0.0
 11
-6.455871902659339
 21
-50.55454340801214
 31
0.0
  0
LINE
  5
1D3
  8
BLATTANSICHT_1_GEOMETRIEAN
  6
VOLLINIE
 62
    18
 10
-6.197350109856289
 20
-51.40677554632478
 30
0.0
 11
-6.16457054981455
 21
-51.47516023276374
 31
0.0
  0
LINE
  5
1D4
  8
BLATTANSICHT_1_GEOMETRIEAN
  6
VOLLINIE
 62
    18
 10
-6.238827729505393
 20
-51.31293548493252
 30
0.0
 11
-6.197350109856289
 21
-51.40677554632478
 31
0.0
  0
LINE
  5
1D5
  8
BLATTANSICHT_1_GEOMETRIEAN
  6
VOLLINIE
 62
    18
 10
-6.311136708215952
 20
-51.12628449504021
 30
0.0
 11
-6.295006637467099
 21
-51.17101183335902
 31
0.0
  0
LINE
  5
1D6
  8
BLATTANSICHT_1_GEOMETRIEAN
  6
VOLLINIE
 62
    18
 10
-6.295006637467099
 20
-51.17101183335902
 30
0.0
 11
-6.264232456294901
 21
-51.2487560317532
 31
0.0
  0
LINE
  5
1D7
  8
BLATTANSICHT_1_GEOMETRIEAN
  6
VOLLINIE
 62
    18
 10
-6.060467357152856
 20
-51.67113139850668
 30
0.0
 11
-5.95509254815294
 21
-51.84131755885295
 31
0.0
  0
LINE
  5
1D8
  8
BLATTANSICHT_1_GEOMETRIEAN
  6
VOLLINIE
 62
    18
 10
-5.95509254815294
 20
-51.84131755885295
 30
0.0
 11
-5.948161033845061
 21
-51.85173465711802
 31
0.0
  0
LINE
  5
1D9
  8
BLATTANSICHT_1_GEOMETRIEAN
  6
VOLLINIE
 62
    18
 10
-5.948161033845061
 20
-51.85173465711802
 30
0.0
 11
-5.839440784845073
 21
-52.0046939649639
 31
0.0
  0
LINE
  5
1DA
  8
BLATTANSICHT_1_GEOMETRIEAN
  6
VOLLINIE
 62
    18
 10
-5.839440784845073
 20
-52.0046939649639
 30
0.0
 11
-5.791566728836961
 21
-52.06652826285764
 31
0.0
  0
LINE
  5
1DB
  8
BLATTANSICHT_1_GEOMETRIEAN
  6
VOLLINIE
 62
    18
 10
-5.579098546143731
 20
-52.30856672111083
 30
0.0
 11
-5.435395638035613
 21
-52.44791037769846
 31
0.0
  0
LINE
  5
1DC
  8
BLATTANSICHT_1_GEOMETRIEAN
  6
VOLLINIE
 62
    18
 10
-5.435395638035613
 20
-52.44791037769846
 30
0.0
 11
-5.428451397213967
 21
-52.45422255606508
 31
0.0
  0
LINE
  5
1DD
  8
BLATTANSICHT_1_GEOMETRIEAN
  6
VOLLINIE
 62
    18
 10
-4.604255917066354
 20
-52.99864353014477
 30
0.0
 11
-4.538567336919303
 21
-53.02798851099632
 31
0.0
  0
LINE
  5
1DE
  8
BLATTANSICHT_1_GEOMETRIEAN
  6
VOLLINIE
 62
    18
 10
-4.777924189151857
 20
-52.91237550689678
 30
0.0
 11
-4.604255917066354
 21
-52.99864353014477
 31
0.0
  0
LINE
  5
1DF
  8
BLATTANSICHT_1_GEOMETRIEAN
  6
VOLLINIE
 62
    18
 10
-4.419920211292552
 20
-53.07666614229547
 30
0.0
 11
-4.290563057207529
 21
-53.12365431822256
 31
0.0
  0
LINE
  5
1E0
  8
BLATTANSICHT_1_GEOMETRIEAN
  6
VOLLINIE
 62
    18
 10
-4.538567336919303
 20
-53.02798851099632
 30
0.0
 11
-4.419920211292552
 21
-53.07666614229547
 31
0.0
  0
LINE
  5
1E1
  8
BLATTANSICHT_1_GEOMETRIEAN
  6
VOLLINIE
 62
    18
 10
-4.290563057207529
 20
-53.12365431822256
 30
0.0
 11
-4.231130987051699
 21
-53.14319289811957
 31
0.0
  0
LINE
  5
1E2
  8
BLATTANSICHT_1_GEOMETRIEAN
  6
VOLLINIE
 62
    18
 10
-3.84307072908816
 20
-53.24079397070399
 30
0.0
 11
-3.775295084092971
 21
-53.25272222642482
 31
0.0
  0
LINE
  5
1E3
  8
BLATTANSICHT_1_GEOMETRIEAN
  6
VOLLINIE
 62
    18
 10
-4.035570379944521
 20
-53.19873297011404
 30
0.0
 11
-3.84307072908816
 21
-53.24079397070399
 31
0.0
  0
LINE
  5
1E4
  8
BLATTANSICHT_1_GEOMETRIEAN
  6
VOLLINIE
 62
    18
 10
-3.645271740844622
 20
-53.2714980531651
 30
0.0
 11
-3.511478286805519
 21
-53.2852609248713
 31
0.0
  0
LINE
  5
1E5
  8
BLATTANSICHT_1_GEOMETRIEAN
  6
VOLLINIE
 62
    18
 10
-3.775295084092971
 20
-53.25272222642482
 30
0.0
 11
-3.645271740844622
 21
-53.2714980531651
 31
0.0
  0
LINE
  5
1E6
  8
BLATTANSICHT_1_GEOMETRIEAN
  6
VOLLINIE
 62
    18
 10
-4.734633261758074
 20
-52.93387985358017
 30
0.0
 11
-4.619394145661297
 21
-52.9916317050155
 31
0.0
  0
LINE
  5
1E7
  8
BLATTANSICHT_1_GEOMETRIEAN
  6
VOLLINIE
 62
    18
 10
-4.619394145661297
 20
-52.9916317050155
 30
0.0
 11
-4.604255917066354
 21
-52.99864353014477
 31
0.0
  0
LINE
  5
1E8
  8
BLATTANSICHT_1_GEOMETRIEAN
  6
VOLLINIE
 62
    18
 10
-4.870884794830924
 20
-52.86071395967681
 30
0.0
 11
-4.783438855901339
 21
-52.90942102816011
 31
0.0
  0
LINE
  5
1E9
  8
BLATTANSICHT_1_GEOMETRIEAN
  6
VOLLINIE
 62
    18
 10
-4.956789325535704
 20
-52.80933708785256
 30
0.0
 11
-4.870884794830924
 21
-52.86071395967681
 31
0.0
  0
LINE
  5
1EA
  8
BLATTANSICHT_1_GEOMETRIEAN
  6
VOLLINIE
 62
    18
 10
-4.231130987051699
 20
-53.14319289811957
 30
0.0
 11
-4.087046692012746
 21
-53.18539033223772
 31
0.0
  0
LINE
  5
1EB
  8
BLATTANSICHT_1_GEOMETRIEAN
  6
VOLLINIE
 62
    18
 10
-4.087046692012746
 20
-53.18539033223772
 30
0.0
 11
-4.038604386536536
 21
-53.19797143884509
 31
0.0
  0
LINE
  5
1EC
  8
BLATTANSICHT_1_GEOMETRIEAN
  6
VOLLINIE
 62
    18
 10
-4.357450261013728
 20
-53.10013241450655
 30
0.0
 11
-4.322810919048442
 21
-53.11194048440971
 31
0.0
  0
LINE
  5
1ED
  8
BLATTANSICHT_1_GEOMETRIEAN
  6
VOLLINIE
 62
    18
 10
-4.419920211292552
 20
-53.07666614229547
 30
0.0
 11
-4.357450261013728
 21
-53.10013241450655
 31
0.0
  0
LINE
  5
1EE
  8
BLATTANSICHT_1_GEOMETRIEAN
  6
VOLLINIE
 62
    18
 10
-3.84307072908816
 20
-53.24079397070399
 30
0.0
 11
-3.810241373088825
 21
-53.24675659397615
 31
0.0
  0
LINE
  5
1EF
  8
BLATTANSICHT_1_GEOMETRIEAN
  6
VOLLINIE
 62
    18
 10
-3.810241373088825
 20
-53.24675659397615
 30
0.0
 11
-3.803139952646206
 21
-53.24782163547303
 31
0.0
  0
LINE
  5
1F0
  8
BLATTANSICHT_1_GEOMETRIEAN
  6
VOLLINIE
 62
    18
 10
-3.445957741119618
 20
-53.2899672151267
 30
0.0
 11
-3.245884796184302
 21
-53.29613139673132
 31
0.0
  0
LINE
  5
1F1
  8
BLATTANSICHT_1_GEOMETRIEAN
  6
VOLLINIE
 62
    18
 10
-3.511478286805519
 20
-53.2852609248713
 30
0.0
 11
-3.445957741119618
 21
-53.2899672151267
 31
0.0
  0
LINE
  5
1F2
  8
BLATTANSICHT_1_GEOMETRIEAN
  6
VOLLINIE
 62
    18
 10
-4.038604386536536
 20
-53.19797143884509
 30
0.0
 11
-4.035570379944521
 21
-53.19873297011404
 31
0.0
  0
LINE
  5
1F3
  8
BLATTANSICHT_1_GEOMETRIEAN
  6
VOLLINIE
 62
    18
 10
-4.231130987051699
 20
-53.14319289811957
 30
0.0
 11
-4.038604386536536
 21
-53.19797143884509
 31
0.0
  0
LINE
  5
1F4
  8
BLATTANSICHT_1_GEOMETRIEAN
  6
VOLLINIE
 62
    18
 10
-5.110008212831723
 20
-52.70837554158098
 30
0.0
 11
-5.087299924647493
 21
-52.72333886580765
 31
0.0
  0
LINE
  5
1F5
  8
BLATTANSICHT_1_GEOMETRIEAN
  6
VOLLINIE
 62
    18
 10
-5.123649748261115
 20
-52.69877136188904
 30
0.0
 11
-5.110008212831723
 21
-52.70837554158098
 31
0.0
  0
LINE
  5
1F6
  8
BLATTANSICHT_1_GEOMETRIEAN
  6
VOLLINIE
 62
    18
 10
-5.007032431128118
 20
-52.77758870158502
 30
0.0
 11
-4.956789325535704
 21
-52.80933708785256
 31
0.0
  0
LINE
  5
1F7
  8
BLATTANSICHT_1_GEOMETRIEAN
  6
VOLLINIE
 62
    18
 10
-5.824283149083364
 20
-52.02460604484588
 30
0.0
 11
-5.818580984518722
 21
-52.03163655589802
 31
0.0
  0
LINE
  5
1F8
  8
BLATTANSICHT_1_GEOMETRIEAN
  6
VOLLINIE
 62
    18
 10
-5.839440784845073
 20
-52.0046939649639
 30
0.0
 11
-5.824283149083364
 21
-52.02460604484588
 31
0.0
  0
LINE
  5
1F9
  8
BLATTANSICHT_1_GEOMETRIEAN
  6
VOLLINIE
 62
    18
 10
-5.283387165340147
 20
-52.57814326393974
 30
0.0
 11
-5.224359438368263
 21
-52.62452975427503
 31
0.0
  0
LINE
  5
1FA
  8
BLATTANSICHT_1_GEOMETRIEAN
  6
VOLLINIE
 62
    18
 10
-5.428451397213967
 20
-52.45422255606508
 30
0.0
 11
-5.283387165340147
 21
-52.57814326393974
 31
0.0
  0
LINE
  5
1FB
  8
BLATTANSICHT_1_GEOMETRIEAN
  6
VOLLINIE
 62
    18
 10
-5.123649748261115
 20
-52.69877136188904
 30
0.0
 11
-5.007032431128118
 21
-52.77758870158502
 31
0.0
  0
LINE
  5
1FC
  8
BLATTANSICHT_1_GEOMETRIEAN
  6
VOLLINIE
 62
    18
 10
-5.224359438368263
 20
-52.62452975427503
 30
0.0
 11
-5.123649748261115
 21
-52.69877136188904
 31
0.0
  0
LINE
  5
1FD
  8
BLATTANSICHT_1_GEOMETRIEAN
  6
VOLLINIE
 62
    18
 10
-5.334944526069378
 20
-52.53577583807205
 30
0.0
 11
-5.283387165340147
 21
-52.57814326393974
 31
0.0
  0
LINE
  5
1FE
  8
BLATTANSICHT_1_GEOMETRIEAN
  6
VOLLINIE
 62
    18
 10
-5.416820273311303
 20
-52.46415841060881
 30
0.0
 11
-5.334944526069378
 21
-52.53577583807205
 31
0.0
  0
LINE
  5
1FF
  8
BLATTANSICHT_1_GEOMETRIEAN
  6
VOLLINIE
 62
    18
 10
-5.579098546143731
 20
-52.30856672111083
 30
0.0
 11
-5.543981833383045
 21
-52.34422843710983
 31
0.0
  0
LINE
  5
200
  8
BLATTANSICHT_1_GEOMETRIEAN
  6
VOLLINIE
 62
    18
 10
-5.543981833383045
 20
-52.34422843710983
 30
0.0
 11
-5.435395638035613
 21
-52.44791037769846
 31
0.0
  0
LINE
  5
201
  8
BLATTANSICHT_1_GEOMETRIEAN
  6
VOLLINIE
 62
    18
 10
-5.689364168067845
 20
-52.18900529843429
 30
0.0
 11
-5.660522898854121
 21
-52.22027799357551
 31
0.0
  0
LINE
  5
202
  8
BLATTANSICHT_1_GEOMETRIEAN
  6
VOLLINIE
 62
    18
 10
-5.713950775312094
 20
-52.16064087239509
 30
0.0
 11
-5.689364168067845
 21
-52.18900529843429
 31
0.0
  0
LINE
  5
203
  8
BLATTANSICHT_1_GEOMETRIEAN
  6
VOLLINIE
 62
    18
 10
-5.713950775312094
 20
-52.16064087239509
 30
0.0
 11
-5.617943030145915
 21
-52.26780638059637
 31
0.0
  0
LINE
  5
204
  8
BLATTANSICHT_1_GEOMETRIEAN
  6
VOLLINIE
 62
    18
 10
-5.791566728836961
 20
-52.06652826285764
 30
0.0
 11
-5.713950775312094
 21
-52.16064087239509
 31
0.0
  0
LINE
  5
205
  8
BLATTANSICHT_1_GEOMETRIEAN
  6
VOLLINIE
 62
    18
 10
-6.238827729505393
 20
-51.31293548493252
 30
0.0
 11
-6.160721205645443
 21
-51.48356964030855
 31
0.0
  0
LINE
  5
206
  8
BLATTANSICHT_1_GEOMETRIEAN
  6
VOLLINIE
 62
    18
 10
-6.248493276945779
 20
-51.28985255077952
 30
0.0
 11
-6.238827729505393
 21
-51.31293548493252
 31
0.0
  0
LINE
  5
207
  8
BLATTANSICHT_1_GEOMETRIEAN
  6
VOLLINIE
 62
    18
 10
-6.311136708215952
 20
-51.12628449504021
 30
0.0
 11
-6.248493276945779
 21
-51.28985255077952
 31
0.0
  0
LINE
  5
208
  8
BLATTANSICHT_1_GEOMETRIEAN
  6
VOLLINIE
 62
    18
 10
-6.336818474000992
 20
-51.05043662763368
 30
0.0
 11
-6.311136708215952
 21
-51.12628449504021
 31
0.0
  0
LINE
  5
209
  8
BLATTANSICHT_1_GEOMETRIEAN
  6
VOLLINIE
 62
    18
 10
-6.373864314745511
 20
-50.92831285834954
 30
0.0
 11
-6.371818136495965
 21
-50.93553611446558
 31
0.0
  0
LINE
  5
20A
  8
BLATTANSICHT_1_GEOMETRIEAN
  6
VOLLINIE
 62
    18
 10
-6.37706973221678
 20
-50.91550565509672
 30
0.0
 11
-6.373864314745511
 21
-50.92831285834954
 31
0.0
  0
LINE
  5
20B
  8
BLATTANSICHT_1_GEOMETRIEAN
  6
VOLLINIE
 62
    18
 10
-6.420641828902999
 20
-50.74141391715244
 30
0.0
 11
-6.40608703714706
 21
-50.80482882879517
 31
0.0
  0
LINE
  5
20C
  8
BLATTANSICHT_1_GEOMETRIEAN
  6
VOLLINIE
 62
    18
 10
-6.455871902659339
 20
-50.55454340801214
 30
0.0
 11
-6.420641828902999
 21
-50.74141391715244
 31
0.0
  0
LINE
  5
20D
  8
BLATTANSICHT_1_GEOMETRIEAN
  6
VOLLINIE
 62
    18
 10
-6.371818136495965
 20
-50.93553611446558
 30
0.0
 11
-6.336818474000992
 21
-51.05043662763368
 31
0.0
  0
LINE
  5
20E
  8
BLATTANSICHT_1_GEOMETRIEAN
  6
VOLLINIE
 62
    18
 10
-6.40608703714706
 20
-50.80482882879517
 30
0.0
 11
-6.371818136495965
 21
-50.93553611446558
 31
0.0
  0
LINE
  5
20F
  8
BLATTANSICHT_1_GEOMETRIEAN
  6
VOLLINIE
 62
    18
 10
-6.433436957881904
 20
-50.68017494120235
 30
0.0
 11
-6.420641828902999
 21
-50.74141391715244
 31
0.0
  0
LINE
  5
210
  8
BLATTANSICHT_1_GEOMETRIEAN
  6
VOLLINIE
 62
    18
 10
-6.452610727716923
 20
-50.57184162390859
 30
0.0
 11
-6.433436957881904
 21
-50.68017494120235
 31
0.0
  0
LINE
  5
211
  8
BLATTANSICHT_1_GEOMETRIEAN
  6
VOLLINIE
 62
    18
 10
-6.482020869143155
 20
-50.34600356498704
 30
0.0
 11
-6.468080595786949
 21
-50.4703415202647
 31
0.0
  0
LINE
  5
212
  8
BLATTANSICHT_1_GEOMETRIEAN
  6
VOLLINIE
 62
    18
 10
-6.468080595786949
 20
-50.4703415202647
 30
0.0
 11
-6.457422580448396
 21
-50.54465427508705
 31
0.0
  0
LINE
  5
213
  8
BLATTANSICHT_1_GEOMETRIEAN
  6
VOLLINIE
 62
    18
 10
-6.48892629671805
 20
-50.25869156646744
 30
0.0
 11
-6.486530364143613
 21
-50.28898565892204
 31
0.0
  0
LINE
  5
214
  8
BLATTANSICHT_1_GEOMETRIEAN
  6
VOLLINIE
 62
    18
 10
-6.494343385252741
 20
-50.14621533703887
 30
0.0
 11
-6.48892629671805
 21
-50.25869156646744
 31
0.0
  0
LINE
  5
215
  8
BLATTANSICHT_1_GEOMETRIEAN
  6
VOLLINIE
 62
    18
 10
-6.494343385252741
 20
-50.14621533703887
 30
0.0
 11
-6.485866130287733
 21
-50.30112345812739
 31
0.0
  0
LINE
  5
216
  8
BLATTANSICHT_1_GEOMETRIEAN
  6
VOLLINIE
 62
    18
 10
-6.495884796184296
 20
-50.0461313973979
 30
0.0
 11
-6.494343385252741
 21
-50.14621533703887
 31
0.0
  0
LINE
  5
217
  8
BLATTANSICHT_1_GEOMETRIEAN
  6
VOLLINIE
 62
    18
 10
-5.428451397213967
 20
-52.45422255606508
 30
0.0
 11
-5.617943030145915
 21
-52.26780638059637
 31
0.0
  0
LINE
  5
218
  8
BLATTANSICHT_1_GEOMETRIEAN
  6
VOLLINIE
 62
    18
 10
-5.791566728836961
 20
-52.06652826285764
 30
0.0
 11
-5.948161033845061
 21
-51.85173465711802
 31
0.0
  0
LINE
  5
219
  8
BLATTANSICHT_1_GEOMETRIEAN
  6
VOLLINIE
 62
    18
 10
-4.538567336919303
 20
-53.02798851099632
 30
0.0
 11
-4.777924189151857
 21
-52.91237550689678
 31
0.0
  0
LINE
  5
21A
  8
BLATTANSICHT_1_GEOMETRIEAN
  6
VOLLINIE
 62
    18
 10
-4.290563057207529
 20
-53.12365431822256
 30
0.0
 11
-4.538567336919303
 21
-53.02798851099632
 31
0.0
  0
LINE
  5
21B
  8
BLATTANSICHT_1_GEOMETRIEAN
  6
VOLLINIE
 62
    18
 10
-4.035570379944521
 20
-53.19873297011404
 30
0.0
 11
-4.290563057207529
 21
-53.12365431822256
 31
0.0
  0
LINE
  5
21C
  8
BLATTANSICHT_1_GEOMETRIEAN
  6
VOLLINIE
 62
    18
 10
-3.775295084092971
 20
-53.25272222642482
 30
0.0
 11
-4.035570379944521
 21
-53.19873297011404
 31
0.0
  0
LINE
  5
21D
  8
BLATTANSICHT_1_GEOMETRIEAN
  6
VOLLINIE
 62
    18
 10
-3.511478286805519
 20
-53.2852609248713
 30
0.0
 11
-3.775295084092971
 21
-53.25272222642482
 31
0.0
  0
LINE
  5
21E
  8
BLATTANSICHT_1_GEOMETRIEAN
  6
VOLLINIE
 62
    18
 10
-3.245884796184302
 20
-53.29613139673132
 30
0.0
 11
-3.511478286805519
 21
-53.2852609248713
 31
0.0
  0
LINE
  5
21F
  8
BLATTANSICHT_1_GEOMETRIEAN
  6
VOLLINIE
 62
    18
 10
-4.777924189151857
 20
-52.91237550689678
 30
0.0
 11
-5.007032431128118
 21
-52.77758870158502
 31
0.0
  0
LINE
  5
220
  8
BLATTANSICHT_1_GEOMETRIEAN
  6
VOLLINIE
 62
    18
 10
-5.224359438368263
 20
-52.62452975427503
 30
0.0
 11
-5.428451397213967
 21
-52.45422255606508
 31
0.0
  0
LINE
  5
221
  8
BLATTANSICHT_1_GEOMETRIEAN
  6
VOLLINIE
 62
    18
 10
-5.007032431128118
 20
-52.77758870158502
 30
0.0
 11
-5.224359438368263
 21
-52.62452975427503
 31
0.0
  0
LINE
  5
222
  8
BLATTANSICHT_1_GEOMETRIEAN
  6
VOLLINIE
 62
    18
 10
-5.617943030145915
 20
-52.26780638059637
 30
0.0
 11
-5.791566728836961
 21
-52.06652826285764
 31
0.0
  0
LINE
  5
223
  8
BLATTANSICHT_1_GEOMETRIEAN
  6
VOLLINIE
 62
    18
 10
-6.455871902659339
 20
-50.55454340801214
 30
0.0
 11
-6.485866130287733
 21
-50.30112345812739
 31
0.0
  0
LINE
  5
224
  8
BLATTANSICHT_1_GEOMETRIEAN
  6
VOLLINIE
 62
    18
 10
-6.248493276945779
 20
-51.28985255077952
 30
0.0
 11
-6.336818474000992
 21
-51.05043662763368
 31
0.0
  0
LINE
  5
225
  8
BLATTANSICHT_1_GEOMETRIEAN
  6
VOLLINIE
 62
    18
 10
-6.40608703714706
 20
-50.80482882879517
 30
0.0
 11
-6.455871902659339
 21
-50.55454340801214
 31
0.0
  0
LINE
  5
226
  8
BLATTANSICHT_1_GEOMETRIEAN
  6
VOLLINIE
 62
    18
 10
-6.336818474000992
 20
-51.05043662763368
 30
0.0
 11
-6.40608703714706
 21
-50.80482882879517
 31
0.0
  0
LINE
  5
227
  8
BLATTANSICHT_1_GEOMETRIEAN
  6
VOLLINIE
 62
    18
 10
-6.485866130287733
 20
-50.30112345812739
 30
0.0
 11
-6.495884796184296
 21
-50.0461313973979
 31
0.0
  0
LINE
  5
228
  8
BLATTANSICHT_1_GEOMETRIEAN
  6
VOLLINIE
 62
    18
 10
-4.035570379763547
 20
-29.89352982443393
 30
0.0
 11
-3.775295083966512
 21
-29.83954056819361
 31
0.0
  0
LINE
  5
229
  8
BLATTANSICHT_1_GEOMETRIEAN
  6
VOLLINIE
 62
    18
 10
-3.775295083966512
 20
-29.83954056819361
 30
0.0
 11
-3.511478286739814
 21
-29.80700186980742
 31
0.0
  0
LINE
  5
22A
  8
BLATTANSICHT_1_GEOMETRIEAN
  6
VOLLINIE
 62
    18
 10
-5.007032430815597
 20
-30.31467409259429
 30
0.0
 11
-4.777924188857069
 21
-30.17988728738589
 31
0.0
  0
LINE
  5
22B
  8
BLATTANSICHT_1_GEOMETRIEAN
  6
VOLLINIE
 62
    18
 10
-5.224359438049709
 20
-30.46773303979531
 30
0.0
 11
-5.007032430815597
 21
-30.31467409259429
 31
0.0
  0
LINE
  5
22C
  8
BLATTANSICHT_1_GEOMETRIEAN
  6
VOLLINIE
 62
    18
 10
-5.428451396901864
 20
-30.6380402378919
 30
0.0
 11
-5.224359438049709
 21
-30.46773303979531
 31
0.0
  0
LINE
  5
22D
  8
BLATTANSICHT_1_GEOMETRIEAN
  6
VOLLINIE
 62
    18
 10
-5.617943029853395
 20
-30.82445641324421
 30
0.0
 11
-5.428451396901864
 21
-30.6380402378919
 31
0.0
  0
LINE
  5
22E
  8
BLATTANSICHT_1_GEOMETRIEAN
  6
VOLLINIE
 62
    18
 10
-5.791566728577648
 20
-31.0257345308649
 30
0.0
 11
-5.617943029853395
 21
-30.82445641324421
 31
0.0
  0
LINE
  5
22F
  8
BLATTANSICHT_1_GEOMETRIEAN
  6
VOLLINIE
 62
    18
 10
-5.948161033632976
 20
-31.24052813648634
 30
0.0
 11
-5.791566728577648
 21
-31.0257345308649
 31
0.0
  0
LINE
  5
230
  8
BLATTANSICHT_1_GEOMETRIEAN
  6
VOLLINIE
 62
    18
 10
-4.777924188857069
 20
-30.17988728738589
 30
0.0
 11
-4.53856733665303
 21
-30.06427428338291
 31
0.0
  0
LINE
  5
231
  8
BLATTANSICHT_1_GEOMETRIEAN
  6
VOLLINIE
 62
    18
 10
-4.290563056979563
 20
-29.96860847624541
 30
0.0
 11
-4.035570379763547
 21
-29.89352982443393
 31
0.0
  0
LINE
  5
232
  8
BLATTANSICHT_1_GEOMETRIEAN
  6
VOLLINIE
 62
    18
 10
-4.53856733665303
 20
-30.06427428338291
 30
0.0
 11
-4.290563056979563
 21
-29.96860847624541
 31
0.0
  0
LINE
  5
233
  8
BLATTANSICHT_1_GEOMETRIEAN
  6
VOLLINIE
 62
    18
 10
-3.511478286739814
 20
-29.80700186980742
 30
0.0
 11
-3.245884796184302
 21
-29.79613139673133
 31
0.0
  0
LINE
  5
234
  8
BLATTANSICHT_1_GEOMETRIEAN
  6
VOLLINIE
 62
    18
 10
-3.843070729088148
 20
-29.85146882275865
 30
0.0
 11
-4.035570379763547
 21
-29.89352982443393
 31
0.0
  0
LINE
  5
235
  8
BLATTANSICHT_1_GEOMETRIEAN
  6
VOLLINIE
 62
    18
 10
-3.775295083966512
 20
-29.83954056819361
 30
0.0
 11
-3.843070729088148
 21
-29.85146882275865
 31
0.0
  0
LINE
  5
236
  8
BLATTANSICHT_1_GEOMETRIEAN
  6
VOLLINIE
 62
    18
 10
-6.081496816397051
 20
-31.45811235819862
 30
0.0
 11
-6.155165493088243
 21
-31.59748174045758
 31
0.0
  0
LINE
  5
237
  8
BLATTANSICHT_1_GEOMETRIEAN
  6
VOLLINIE
 62
    18
 10
-6.060467358117003
 20
-31.42113139609615
 30
0.0
 11
-6.081496816397051
 21
-31.45811235819862
 31
0.0
  0
LINE
  5
238
  8
BLATTANSICHT_1_GEOMETRIEAN
  6
VOLLINIE
 62
    18
 10
-3.645271740844622
 20
-29.82076474029754
 30
0.0
 11
-3.775295083966512
 21
-29.83954056819361
 31
0.0
  0
LINE
  5
239
  8
BLATTANSICHT_1_GEOMETRIEAN
  6
VOLLINIE
 62
    18
 10
-3.511478286739814
 20
-29.80700186980742
 30
0.0
 11
-3.645271740844622
 21
-29.82076474029754
 31
0.0
  0
LINE
  5
23A
  8
BLATTANSICHT_1_GEOMETRIEAN
  6
VOLLINIE
 62
    18
 10
-4.956789325535704
 20
-30.28292570561008
 30
0.0
 11
-5.007032430815597
 21
-30.31467409259429
 31
0.0
  0
LINE
  5
23B
  8
BLATTANSICHT_1_GEOMETRIEAN
  6
VOLLINIE
 62
    18
 10
-5.123649748261115
 20
-30.39349143157362
 30
0.0
 11
-5.224359438049709
 21
-30.46773303979531
 31
0.0
  0
LINE
  5
23C
  8
BLATTANSICHT_1_GEOMETRIEAN
  6
VOLLINIE
 62
    18
 10
-5.007032430815597
 20
-30.31467409259429
 30
0.0
 11
-5.123649748261115
 21
-30.39349143157362
 31
0.0
  0
LINE
  5
23D
  8
BLATTANSICHT_1_GEOMETRIEAN
  6
VOLLINIE
 62
    18
 10
-5.283387165340136
 20
-30.5141195295229
 30
0.0
 11
-5.428451396901864
 21
-30.6380402378919
 31
0.0
  0
LINE
  5
23E
  8
BLATTANSICHT_1_GEOMETRIEAN
  6
VOLLINIE
 62
    18
 10
-5.224359438049709
 20
-30.46773303979531
 30
0.0
 11
-5.283387165340136
 21
-30.5141195295229
 31
0.0
  0
LINE
  5
23F
  8
BLATTANSICHT_1_GEOMETRIEAN
  6
VOLLINIE
 62
    18
 10
-5.435395638035601
 20
-30.64435241576419
 30
0.0
 11
-5.579098546143731
 21
-30.78369607235182
 31
0.0
  0
LINE
  5
240
  8
BLATTANSICHT_1_GEOMETRIEAN
  6
VOLLINIE
 62
    18
 10
-5.428451396901864
 20
-30.6380402378919
 30
0.0
 11
-5.435395638035601
 21
-30.64435241576419
 31
0.0
  0
LINE
  5
241
  8
BLATTANSICHT_1_GEOMETRIEAN
  6
VOLLINIE
 62
    18
 10
-5.579098546143731
 20
-30.78369607235182
 30
0.0
 11
-5.617943029853395
 21
-30.82445641324421
 31
0.0
  0
LINE
  5
242
  8
BLATTANSICHT_1_GEOMETRIEAN
  6
VOLLINIE
 62
    18
 10
-5.713950775312094
 20
-30.93162192106755
 30
0.0
 11
-5.791566728577648
 21
-31.0257345308649
 31
0.0
  0
LINE
  5
243
  8
BLATTANSICHT_1_GEOMETRIEAN
  6
VOLLINIE
 62
    18
 10
-5.617943029853395
 20
-30.82445641324421
 30
0.0
 11
-5.713950775312094
 21
-30.93162192106755
 31
0.0
  0
LINE
  5
244
  8
BLATTANSICHT_1_GEOMETRIEAN
  6
VOLLINIE
 62
    18
 10
-6.155165493088243
 20
-31.59748174045758
 30
0.0
 11
-6.160721205579478
 21
-31.60869315319317
 31
0.0
  0
LINE
  5
245
  8
BLATTANSICHT_1_GEOMETRIEAN
  6
VOLLINIE
 62
    18
 10
-6.060467357011925
 20
-31.4211313950441
 30
0.0
 11
-6.155165493088243
 21
-31.59748174045758
 31
0.0
  0
LINE
  5
246
  8
BLATTANSICHT_1_GEOMETRIEAN
  6
VOLLINIE
 62
    18
 10
-6.238827729505393
 20
-31.77932730853012
 30
0.0
 11
-6.2484932769583
 21
-31.80241024267794
 31
0.0
  0
LINE
  5
247
  8
BLATTANSICHT_1_GEOMETRIEAN
  6
VOLLINIE
 62
    18
 10
-6.160721205579478
 20
-31.60869315319317
 30
0.0
 11
-6.238827729505393
 21
-31.77932730853012
 31
0.0
  0
LINE
  5
248
  8
BLATTANSICHT_1_GEOMETRIEAN
  6
VOLLINIE
 62
    18
 10
-6.311136708215952
 20
-31.96597829842244
 30
0.0
 11
-6.33681847420403
 21
-32.04182616606089
 31
0.0
  0
LINE
  5
249
  8
BLATTANSICHT_1_GEOMETRIEAN
  6
VOLLINIE
 62
    18
 10
-6.2484932769583
 20
-31.80241024267794
 30
0.0
 11
-6.311136708215952
 21
-31.96597829842244
 31
0.0
  0
LINE
  5
24A
  8
BLATTANSICHT_1_GEOMETRIEAN
  6
VOLLINIE
 62
    18
 10
-6.371818136495953
 20
-32.15672667899706
 30
0.0
 11
-6.406087037499613
 21
-32.28743396515686
 31
0.0
  0
LINE
  5
24B
  8
BLATTANSICHT_1_GEOMETRIEAN
  6
VOLLINIE
 62
    18
 10
-6.33681847420403
 20
-32.04182616606089
 30
0.0
 11
-6.371818136495953
 21
-32.15672667899706
 31
0.0
  0
LINE
  5
24C
  8
BLATTANSICHT_1_GEOMETRIEAN
  6
VOLLINIE
 62
    18
 10
-6.420641828902999
 20
-32.35084887631021
 30
0.0
 11
-6.45587190311852
 21
-32.53771938621273
 31
0.0
  0
LINE
  5
24D
  8
BLATTANSICHT_1_GEOMETRIEAN
  6
VOLLINIE
 62
    18
 10
-6.406087037499613
 20
-32.28743396515686
 30
0.0
 11
-6.420641828902999
 21
-32.35084887631021
 31
0.0
  0
LINE
  5
24E
  8
BLATTANSICHT_1_GEOMETRIEAN
  6
VOLLINIE
 62
    18
 10
-6.295006636931599
 20
-31.92125096030068
 30
0.0
 11
-6.311136708215952
 21
-31.96597829842244
 31
0.0
  0
LINE
  5
24F
  8
BLATTANSICHT_1_GEOMETRIEAN
  6
VOLLINIE
 62
    18
 10
-6.26423246489272
 20
-31.84350678413082
 30
0.0
 11
-6.295006636931599
 21
-31.92125096030068
 31
0.0
  0
LINE
  5
250
  8
BLATTANSICHT_1_GEOMETRIEAN
  6
VOLLINIE
 62
    18
 10
-6.164570551021439
 20
-31.61710256350969
 30
0.0
 11
-6.19735010934011
 21
-31.68548724737501
 31
0.0
  0
LINE
  5
251
  8
BLATTANSICHT_1_GEOMETRIEAN
  6
VOLLINIE
 62
    18
 10
-6.19735010934011
 20
-31.68548724737501
 30
0.0
 11
-6.238827729505393
 21
-31.77932730853012
 31
0.0
  0
LINE
  5
252
  8
BLATTANSICHT_1_GEOMETRIEAN
  6
VOLLINIE
 62
    18
 10
-6.373864314197196
 20
-32.16394993526762
 30
0.0
 11
-6.377069719445863
 21
-32.17675708952444
 31
0.0
  0
LINE
  5
253
  8
BLATTANSICHT_1_GEOMETRIEAN
  6
VOLLINIE
 62
    18
 10
-6.371818136495953
 20
-32.15672667899706
 30
0.0
 11
-6.373864314197196
 21
-32.16394993526762
 31
0.0
  0
LINE
  5
254
  8
BLATTANSICHT_1_GEOMETRIEAN
  6
VOLLINIE
 62
    18
 10
-6.433436957327555
 20
-32.41208785237057
 30
0.0
 11
-6.45261072144446
 21
-32.52042113476461
 31
0.0
  0
LINE
  5
255
  8
BLATTANSICHT_1_GEOMETRIEAN
  6
VOLLINIE
 62
    18
 10
-6.420641828902999
 20
-32.35084887631021
 30
0.0
 11
-6.433436957327555
 21
-32.41208785237057
 31
0.0
  0
LINE
  5
256
  8
BLATTANSICHT_1_GEOMETRIEAN
  6
VOLLINIE
 62
    18
 10
-6.45587190311852
 20
-32.53771938621273
 30
0.0
 11
-6.457422580448386
 21
-32.5476085183756
 31
0.0
  0
LINE
  5
257
  8
BLATTANSICHT_1_GEOMETRIEAN
  6
VOLLINIE
 62
    18
 10
-6.457422580448386
 20
-32.5476085183756
 30
0.0
 11
-6.482020869143155
 21
-32.74625922847559
 31
0.0
  0
LINE
  5
258
  8
BLATTANSICHT_1_GEOMETRIEAN
  6
VOLLINIE
 62
    18
 10
-6.482020869143155
 20
-32.74625922847559
 30
0.0
 11
-6.485866130809303
 21
-32.7911393363805
 31
0.0
  0
LINE
  5
259
  8
BLATTANSICHT_1_GEOMETRIEAN
  6
VOLLINIE
 62
    18
 10
-6.485866130809303
 20
-32.7911393363805
 30
0.0
 11
-6.49434338525273
 21
-32.94604745642377
 31
0.0
  0
LINE
  5
25A
  8
BLATTANSICHT_1_GEOMETRIEAN
  6
VOLLINIE
 62
    18
 10
-6.49434338525273
 20
-32.94604745642377
 30
0.0
 11
-6.495884796184296
 21
-33.04613139739791
 31
0.0
  0
LINE
  5
25B
  8
BLATTANSICHT_1_GEOMETRIEAN
  6
VOLLINIE
 62
    18
 10
-6.486530366359723
 20
-32.80327716721575
 30
0.0
 11
-6.488926296227353
 21
-32.83357122791865
 31
0.0
  0
LINE
  5
25C
  8
BLATTANSICHT_1_GEOMETRIEAN
  6
VOLLINIE
 62
    18
 10
-6.488926296227353
 20
-32.83357122791865
 30
0.0
 11
-6.49434338525273
 21
-32.94604745642377
 31
0.0
  0
LINE
  5
25D
  8
BLATTANSICHT_1_GEOMETRIEAN
  6
VOLLINIE
 62
    18
 10
-6.468080595290985
 20
-32.62192127371202
 30
0.0
 11
-6.482020869143155
 21
-32.74625922847559
 31
0.0
  0
LINE
  5
25E
  8
BLATTANSICHT_1_GEOMETRIEAN
  6
VOLLINIE
 62
    18
 10
-6.457422580448386
 20
-32.5476085183756
 30
0.0
 11
-6.468080595290985
 21
-32.62192127371202
 31
0.0
  0
LINE
  5
25F
  8
BLATTANSICHT_1_GEOMETRIEAN
  6
VOLLINIE
 62
    18
 10
-5.087299935415163
 20
-30.36892393522169
 30
0.0
 11
-5.110008212549072
 21
-30.38388725224893
 31
0.0
  0
LINE
  5
260
  8
BLATTANSICHT_1_GEOMETRIEAN
  6
VOLLINIE
 62
    18
 10
-5.110008212549072
 20
-30.38388725224893
 30
0.0
 11
-5.123649748261115
 21
-30.39349143157362
 31
0.0
  0
LINE
  5
261
  8
BLATTANSICHT_1_GEOMETRIEAN
  6
VOLLINIE
 62
    18
 10
-4.870884794590911
 20
-30.23154883414623
 30
0.0
 11
-4.956789325535704
 21
-30.28292570561008
 31
0.0
  0
LINE
  5
262
  8
BLATTANSICHT_1_GEOMETRIEAN
  6
VOLLINIE
 62
    18
 10
-4.783438855901328
 20
-30.18284176530253
 30
0.0
 11
-4.870884794590911
 21
-30.23154883414623
 31
0.0
  0
LINE
  5
263
  8
BLATTANSICHT_1_GEOMETRIEAN
  6
VOLLINIE
 62
    18
 10
-5.334944525745374
 20
-30.55648695575877
 30
0.0
 11
-5.416820301629891
 21
-30.62810440774484
 31
0.0
  0
LINE
  5
264
  8
BLATTANSICHT_1_GEOMETRIEAN
  6
VOLLINIE
 62
    18
 10
-5.283387165340136
 20
-30.5141195295229
 30
0.0
 11
-5.334944525745374
 21
-30.55648695575877
 31
0.0
  0
LINE
  5
265
  8
BLATTANSICHT_1_GEOMETRIEAN
  6
VOLLINIE
 62
    18
 10
-4.619394145464463
 20
-30.10063108879449
 30
0.0
 11
-4.734633396261789
 21
-30.15838300742142
 31
0.0
  0
LINE
  5
266
  8
BLATTANSICHT_1_GEOMETRIEAN
  6
VOLLINIE
 62
    18
 10
-4.604255917066342
 20
-30.09361926331787
 30
0.0
 11
-4.619394145464463
 21
-30.10063108879449
 31
0.0
  0
LINE
  5
267
  8
BLATTANSICHT_1_GEOMETRIEAN
  6
VOLLINIE
 62
    18
 10
-5.839440784845073
 20
-31.08756882849874
 30
0.0
 11
-5.948161033632976
 21
-31.24052813648634
 31
0.0
  0
LINE
  5
268
  8
BLATTANSICHT_1_GEOMETRIEAN
  6
VOLLINIE
 62
    18
 10
-5.791566728577648
 20
-31.0257345308649
 30
0.0
 11
-5.839440784845073
 21
-31.08756882849874
 31
0.0
  0
LINE
  5
269
  8
BLATTANSICHT_1_GEOMETRIEAN
  6
VOLLINIE
 62
    18
 10
-5.955092548152928
 20
-31.25094523460969
 30
0.0
 11
-6.060467357011925
 21
-31.4211313950441
 31
0.0
  0
LINE
  5
26A
  8
BLATTANSICHT_1_GEOMETRIEAN
  6
VOLLINIE
 62
    18
 10
-5.948161033632976
 20
-31.24052813648634
 30
0.0
 11
-5.955092548152928
 21
-31.25094523460969
 31
0.0
  0
LINE
  5
26B
  8
BLATTANSICHT_1_GEOMETRIEAN
  6
VOLLINIE
 62
    18
 10
-5.824283148652947
 20
-31.06765674894601
 30
0.0
 11
-5.839440784845073
 21
-31.08756882849874
 31
0.0
  0
LINE
  5
26C
  8
BLATTANSICHT_1_GEOMETRIEAN
  6
VOLLINIE
 62
    18
 10
-5.818580994003915
 20
-31.06062625007492
 30
0.0
 11
-5.824283148652947
 21
-31.06765674894601
 31
0.0
  0
LINE
  5
26D
  8
BLATTANSICHT_1_GEOMETRIEAN
  6
VOLLINIE
 62
    18
 10
-5.660522904619486
 20
-30.87198480671455
 30
0.0
 11
-5.689364167669531
 21
-30.90325749537651
 31
0.0
  0
LINE
  5
26E
  8
BLATTANSICHT_1_GEOMETRIEAN
  6
VOLLINIE
 62
    18
 10
-5.689364167669531
 20
-30.90325749537651
 30
0.0
 11
-5.713950775312094
 21
-30.93162192106755
 31
0.0
  0
LINE
  5
26F
  8
BLATTANSICHT_1_GEOMETRIEAN
  6
VOLLINIE
 62
    18
 10
-5.543981833019664
 20
-30.74803435671619
 30
0.0
 11
-5.579098546143731
 21
-30.78369607235182
 31
0.0
  0
LINE
  5
270
  8
BLATTANSICHT_1_GEOMETRIEAN
  6
VOLLINIE
 62
    18
 10
-5.435395638035601
 20
-30.64435241576419
 30
0.0
 11
-5.543981833019664
 21
-30.74803435671619
 31
0.0
  0
LINE
  5
271
  8
BLATTANSICHT_1_GEOMETRIEAN
  6
VOLLINIE
 62
    18
 10
-4.783438855901328
 20
-30.18284176530253
 30
0.0
 11
-4.956789325535704
 21
-30.28292570561008
 31
0.0
  0
LINE
  5
272
  8
BLATTANSICHT_1_GEOMETRIEAN
  6
VOLLINIE
 62
    18
 10
-4.777924188857069
 20
-30.17988728738589
 30
0.0
 11
-4.783438855901328
 21
-30.18284176530253
 31
0.0
  0
LINE
  5
273
  8
BLATTANSICHT_1_GEOMETRIEAN
  6
VOLLINIE
 62
    18
 10
-4.604255917066342
 20
-30.09361926331787
 30
0.0
 11
-4.777924188857069
 21
-30.17988728738589
 31
0.0
  0
LINE
  5
274
  8
BLATTANSICHT_1_GEOMETRIEAN
  6
VOLLINIE
 62
    18
 10
-4.53856733665303
 20
-30.06427428338291
 30
0.0
 11
-4.604255917066342
 21
-30.09361926331787
 31
0.0
  0
LINE
  5
275
  8
BLATTANSICHT_1_GEOMETRIEAN
  6
VOLLINIE
 62
    18
 10
-4.357450260859825
 20
-29.99213037928407
 30
0.0
 11
-4.41992021129254
 21
-30.01559665116718
 31
0.0
  0
LINE
  5
276
  8
BLATTANSICHT_1_GEOMETRIEAN
  6
VOLLINIE
 62
    18
 10
-4.322810894861568
 20
-29.98032230108406
 30
0.0
 11
-4.357450260859825
 21
-29.99213037928407
 31
0.0
  0
LINE
  5
277
  8
BLATTANSICHT_1_GEOMETRIEAN
  6
VOLLINIE
 62
    18
 10
-4.038604386536524
 20
-29.89429135461755
 30
0.0
 11
-4.231130987051688
 21
-29.94906989534307
 31
0.0
  0
LINE
  5
278
  8
BLATTANSICHT_1_GEOMETRIEAN
  6
VOLLINIE
 62
    18
 10
-4.035570379763547
 20
-29.89352982443393
 30
0.0
 11
-4.038604386536524
 21
-29.89429135461755
 31
0.0
  0
LINE
  5
279
  8
BLATTANSICHT_1_GEOMETRIEAN
  6
VOLLINIE
 62
    18
 10
-4.231130987051688
 20
-29.94906989534307
 30
0.0
 11
-4.290563056979563
 21
-29.96860847624541
 31
0.0
  0
LINE
  5
27A
  8
BLATTANSICHT_1_GEOMETRIEAN
  6
VOLLINIE
 62
    18
 10
-4.41992021129254
 20
-30.01559665116718
 30
0.0
 11
-4.53856733665303
 21
-30.06427428338291
 31
0.0
  0
LINE
  5
27B
  8
BLATTANSICHT_1_GEOMETRIEAN
  6
VOLLINIE
 62
    18
 10
-4.290563056979563
 20
-29.96860847624541
 30
0.0
 11
-4.41992021129254
 21
-30.01559665116718
 31
0.0
  0
LINE
  5
27C
  8
BLATTANSICHT_1_GEOMETRIEAN
  6
VOLLINIE
 62
    18
 10
-4.087046691900793
 20
-29.90687246152716
 30
0.0
 11
-4.231130987051688
 21
-29.94906989534307
 31
0.0
  0
LINE
  5
27D
  8
BLATTANSICHT_1_GEOMETRIEAN
  6
VOLLINIE
 62
    18
 10
-4.038604386536524
 20
-29.89429135461755
 30
0.0
 11
-4.087046691900793
 21
-29.90687246152716
 31
0.0
  0
LINE
  5
27E
  8
BLATTANSICHT_1_GEOMETRIEAN
  6
VOLLINIE
 62
    18
 10
-3.803139936305527
 20
-29.84444115580778
 30
0.0
 11
-3.810241373017029
 21
-29.8455061997567
 31
0.0
  0
LINE
  5
27F
  8
BLATTANSICHT_1_GEOMETRIEAN
  6
VOLLINIE
 62
    18
 10
-3.810241373017029
 20
-29.8455061997567
 30
0.0
 11
-3.843070729088148
 21
-29.85146882275865
 31
0.0
  0
LINE
  5
280
  8
BLATTANSICHT_1_GEOMETRIEAN
  6
VOLLINIE
 62
    18
 10
-3.529140959820502
 20
-29.80849862827774
 30
0.0
 11
-3.645271740844622
 21
-29.82076474029754
 31
0.0
  0
LINE
  5
281
  8
BLATTANSICHT_1_GEOMETRIEAN
  6
VOLLINIE
 62
    18
 10
-3.517826850346997
 20
-29.80765492461722
 30
0.0
 11
-3.529140959820502
 21
-29.80849862827774
 31
0.0
  0
LINE
  5
282
  8
BLATTANSICHT_1_GEOMETRIEAN
  6
VOLLINIE
 62
    18
 10
-3.445957741119618
 20
-29.80229557833594
 30
0.0
 11
-3.511478286739814
 21
-29.80700186980742
 31
0.0
  0
LINE
  5
283
  8
BLATTANSICHT_1_GEOMETRIEAN
  6
VOLLINIE
 62
    18
 10
-3.245884796184302
 20
-29.79613139673133
 30
0.0
 11
-3.445957741119618
 21
-29.80229557833594
 31
0.0
  0
LINE
  5
284
  8
BLATTANSICHT_1_GEOMETRIEAN
  6
VOLLINIE
 62
    18
 10
-6.160721205579478
 20
-31.60869315319317
 30
0.0
 11
-6.060467357011925
 21
-31.4211313950441
 31
0.0
  0
LINE
  5
285
  8
BLATTANSICHT_1_GEOMETRIEAN
  6
VOLLINIE
 62
    18
 10
-6.2484932769583
 20
-31.80241024267794
 30
0.0
 11
-6.160721205579478
 21
-31.60869315319317
 31
0.0
  0
LINE
  5
286
  8
BLATTANSICHT_1_GEOMETRIEAN
  6
VOLLINIE
 62
    18
 10
-6.060467357011925
 20
-31.4211313950441
 30
0.0
 11
-5.948161033632976
 21
-31.24052813648634
 31
0.0
  0
LINE
  5
287
  8
BLATTANSICHT_1_GEOMETRIEAN
  6
VOLLINIE
 62
    18
 10
-6.33681847420403
 20
-32.04182616606089
 30
0.0
 11
-6.2484932769583
 21
-31.80241024267794
 31
0.0
  0
LINE
  5
288
  8
BLATTANSICHT_1_GEOMETRIEAN
  6
VOLLINIE
 62
    18
 10
-6.406087037499613
 20
-32.28743396515686
 30
0.0
 11
-6.33681847420403
 21
-32.04182616606089
 31
0.0
  0
LINE
  5
289
  8
BLATTANSICHT_1_GEOMETRIEAN
  6
VOLLINIE
 62
    18
 10
-6.45587190311852
 20
-32.53771938621273
 30
0.0
 11
-6.406087037499613
 21
-32.28743396515686
 31
0.0
  0
LINE
  5
28A
  8
BLATTANSICHT_1_GEOMETRIEAN
  6
VOLLINIE
 62
    18
 10
-6.485866130809303
 20
-32.7911393363805
 30
0.0
 11
-6.45587190311852
 21
-32.53771938621273
 31
0.0
  0
LINE
  5
28B
  8
BLATTANSICHT_1_GEOMETRIEAN
  6
VOLLINIE
 62
    18
 10
-6.495884796184296
 20
-33.04613139739791
 30
0.0
 11
-6.485866130809303
 21
-32.7911393363805
 31
0.0
  0
LINE
  5
28C
  8
BLATTANSICHT_1_GEOMETRIEAN
  6
VOLLINIE
 62
    18
 10
-2.72859257352395
 20
-29.82076474029754
 30
0.0
 11
-2.844723353614943
 21
-29.80849862892151
 31
0.0
  0
LINE
  5
28D
  8
BLATTANSICHT_1_GEOMETRIEAN
  6
VOLLINIE
 62
    18
 10
-2.844723353614943
 20
-29.80849862892151
 30
0.0
 11
-2.850930216384541
 21
-29.80803577735231
 31
0.0
  0
LINE
  5
28E
  8
BLATTANSICHT_1_GEOMETRIEAN
  6
VOLLINIE
 62
    18
 10
0.1150619814618204
 20
-32.833571227828
 30
0.0
 11
0.1081565547745609
 21
-32.74625922847562
 31
0.0
  0
LINE
  5
28F
  8
BLATTANSICHT_1_GEOMETRIEAN
  6
VOLLINIE
 62
    18
 10
0.1081565547745609
 20
-32.74625922847562
 30
0.0
 11
0.094216280565687
 21
-32.62192127419465
 31
0.0
  0
LINE
  5
290
  8
BLATTANSICHT_1_GEOMETRIEAN
  6
VOLLINIE
 62
    18
 10
0.094216280565687
 20
-32.62192127419465
 30
0.0
 11
0.0835582660797908
 21
-32.54760851837563
 31
0.0
  0
LINE
  5
291
  8
BLATTANSICHT_1_GEOMETRIEAN
  6
VOLLINIE
 62
    18
 10
0.0835582660797908
 20
-32.54760851837563
 30
0.0
 11
0.0595726427170075
 21
-32.41208785341651
 31
0.0
  0
LINE
  5
292
  8
BLATTANSICHT_1_GEOMETRIEAN
  6
VOLLINIE
 62
    18
 10
0.0595726427170075
 20
-32.41208785341651
 30
0.0
 11
0.046777514534404
 21
-32.35084887631023
 31
0.0
  0
LINE
  5
293
  8
BLATTANSICHT_1_GEOMETRIEAN
  6
VOLLINIE
 62
    18
 10
0.046777514534404
 20
-32.35084887631023
 30
0.0
 11
-0.0000000001811998
 21
-32.16394993695887
 31
0.0
  0
LINE
  5
294
  8
BLATTANSICHT_1_GEOMETRIEAN
  6
VOLLINIE
 62
    18
 10
-0.0627276061526428
 20
-31.96597829842246
 30
0.0
 11
-0.0788576771137819
 21
-31.9212509626005
 31
0.0
  0
LINE
  5
295
  8
BLATTANSICHT_1_GEOMETRIEAN
  6
VOLLINIE
 62
    18
 10
-0.1350365848631904
 20
-31.77932730853014
 30
0.0
 11
-0.1765142042760492
 21
-31.68548725023487
 31
0.0
  0
LINE
  5
296
  8
BLATTANSICHT_1_GEOMETRIEAN
  6
VOLLINIE
 62
    18
 10
-0.0788576771137819
 20
-31.9212509626005
 30
0.0
 11
-0.1350365848631904
 21
-31.77932730853014
 31
0.0
  0
LINE
  5
297
  8
BLATTANSICHT_1_GEOMETRIEAN
  6
VOLLINIE
 62
    18
 10
-0.2186988212803396
 20
-31.59748174045761
 30
0.0
 11
-0.2923674966995245
 21
-31.45811236155881
 31
0.0
  0
LINE
  5
298
  8
BLATTANSICHT_1_GEOMETRIEAN
  6
VOLLINIE
 62
    18
 10
-0.1765142042760492
 20
-31.68548725023487
 30
0.0
 11
-0.2186988212803396
 21
-31.59748174045761
 31
0.0
  0
LINE
  5
299
  8
BLATTANSICHT_1_GEOMETRIEAN
  6
VOLLINIE
 62
    18
 10
-0.2923674966995245
 20
-31.45811236155881
 30
0.0
 11
-0.3133969558848611
 21
-31.42113139673135
 31
0.0
  0
LINE
  5
29A
  8
BLATTANSICHT_1_GEOMETRIEAN
  6
VOLLINIE
 62
    18
 10
-0.5344235295235104
 20
-31.08756882849876
 30
0.0
 11
-0.5495811632531739
 21
-31.06765675306939
 31
0.0
  0
LINE
  5
29B
  8
BLATTANSICHT_1_GEOMETRIEAN
  6
VOLLINIE
 62
    18
 10
-0.4257032803060582
 20
-31.24052813838111
 30
0.0
 11
-0.5344235295235104
 21
-31.08756882849876
 31
0.0
  0
LINE
  5
29C
  8
BLATTANSICHT_1_GEOMETRIEAN
  6
VOLLINIE
 62
    18
 10
-0.6599135390564891
 20
-30.93162192106757
 30
0.0
 11
-0.6845001435974728
 21
-30.90325749976844
 31
0.0
  0
LINE
  5
29D
  8
BLATTANSICHT_1_GEOMETRIEAN
  6
VOLLINIE
 62
    18
 10
-0.5495811632531739
 20
-31.06765675306939
 30
0.0
 11
-0.6599135390564891
 21
-30.93162192106757
 31
0.0
  0
LINE
  5
29E
  8
BLATTANSICHT_1_GEOMETRIEAN
  6
VOLLINIE
 62
    18
 10
-1.769608397302218
 20
-30.0936192633179
 30
0.0
 11
-1.800535681135345
 21
-30.07958578734883
 31
0.0
  0
LINE
  5
29F
  8
BLATTANSICHT_1_GEOMETRIEAN
  6
VOLLINIE
 62
    18
 10
-1.95394410307602
 20
-30.01559665116719
 30
0.0
 11
-2.054572565045103
 21
-29.97851057493454
 31
0.0
  0
LINE
  5
2A0
  8
BLATTANSICHT_1_GEOMETRIEAN
  6
VOLLINIE
 62
    18
 10
-1.800535681135345
 20
-30.07958578734883
 30
0.0
 11
-1.95394410307602
 21
-30.01559665116719
 31
0.0
  0
LINE
  5
2A1
  8
BLATTANSICHT_1_GEOMETRIEAN
  6
VOLLINIE
 62
    18
 10
-2.142733327316873
 20
-29.94906989534308
 30
0.0
 11
-2.31620596261587
 21
-29.89914495122533
 31
0.0
  0
LINE
  5
2A2
  8
BLATTANSICHT_1_GEOMETRIEAN
  6
VOLLINIE
 62
    18
 10
-2.054572565045103
 20
-29.97851057493454
 30
0.0
 11
-2.142733327316873
 21
-29.94906989534308
 31
0.0
  0
LINE
  5
2A3
  8
BLATTANSICHT_1_GEOMETRIEAN
  6
VOLLINIE
 62
    18
 10
-2.335259927832048
 20
-29.89429135461756
 30
0.0
 11
-2.530793585280413
 21
-29.85146882275866
 31
0.0
  0
LINE
  5
2A4
  8
BLATTANSICHT_1_GEOMETRIEAN
  6
VOLLINIE
 62
    18
 10
-2.31620596261587
 20
-29.89914495122533
 30
0.0
 11
-2.335259927832048
 21
-29.89429135461756
 31
0.0
  0
LINE
  5
2A5
  8
BLATTANSICHT_1_GEOMETRIEAN
  6
VOLLINIE
 62
    18
 10
-2.530793585280413
 20
-29.85146882275866
 30
0.0
 11
-2.583584291210377
 21
-29.84205058767531
 31
0.0
  0
LINE
  5
2A6
  8
BLATTANSICHT_1_GEOMETRIEAN
  6
VOLLINIE
 62
    18
 10
-2.72859257352395
 20
-29.82076474029754
 30
0.0
 11
-2.854815311246807
 21
-29.80763154176805
 31
0.0
  0
LINE
  5
2A7
  8
BLATTANSICHT_1_GEOMETRIEAN
  6
VOLLINIE
 62
    18
 10
-2.583584291210377
 20
-29.84205058767531
 30
0.0
 11
-2.72859257352395
 21
-29.82076474029754
 31
0.0
  0
LINE
  5
2A8
  8
BLATTANSICHT_1_GEOMETRIEAN
  6
VOLLINIE
 62
    18
 10
-1.590425458467244
 20
-30.18284176530255
 30
0.0
 11
-1.754470166795518
 21
-30.10063109044051
 31
0.0
  0
LINE
  5
2A9
  8
BLATTANSICHT_1_GEOMETRIEAN
  6
VOLLINIE
 62
    18
 10
-1.754470166795518
 20
-30.10063109044051
 30
0.0
 11
-1.769608397302218
 21
-30.0936192633179
 31
0.0
  0
LINE
  5
2AA
  8
BLATTANSICHT_1_GEOMETRIEAN
  6
VOLLINIE
 62
    18
 10
-1.55592766832896
 20
-30.20205690885185
 30
0.0
 11
-1.555952733566479
 21
-30.20204294760579
 31
0.0
  0
LINE
  5
2AB
  8
BLATTANSICHT_1_GEOMETRIEAN
  6
VOLLINIE
 62
    18
 10
-1.502979517467951
 20
-30.23154883617202
 30
0.0
 11
-1.541099357882209
 21
-30.21031622380176
 31
0.0
  0
LINE
  5
2AC
  8
BLATTANSICHT_1_GEOMETRIEAN
  6
VOLLINIE
 62
    18
 10
-1.417074988832868
 20
-30.2829257056101
 30
0.0
 11
-1.502979517467951
 21
-30.23154883617202
 31
0.0
  0
LINE
  5
2AD
  8
BLATTANSICHT_1_GEOMETRIEAN
  6
VOLLINIE
 62
    18
 10
-2.142733327316873
 20
-29.94906989534308
 30
0.0
 11
-2.28681762088703
 21
-29.90687246256079
 31
0.0
  0
LINE
  5
2AE
  8
BLATTANSICHT_1_GEOMETRIEAN
  6
VOLLINIE
 62
    18
 10
-2.28681762088703
 20
-29.90687246256079
 30
0.0
 11
-2.312824314339199
 21
-29.90011818023605
 31
0.0
  0
LINE
  5
2AF
  8
BLATTANSICHT_1_GEOMETRIEAN
  6
VOLLINIE
 62
    18
 10
-2.016414051645414
 20
-29.99213038059784
 30
0.0
 11
-2.032441977568008
 21
-29.98666668343694
 31
0.0
  0
LINE
  5
2B0
  8
BLATTANSICHT_1_GEOMETRIEAN
  6
VOLLINIE
 62
    18
 10
-1.95394410307602
 20
-30.01559665116719
 30
0.0
 11
-2.016414051645414
 21
-29.99213038059784
 31
0.0
  0
LINE
  5
2B1
  8
BLATTANSICHT_1_GEOMETRIEAN
  6
VOLLINIE
 62
    18
 10
-2.530793585280413
 20
-29.85146882275866
 30
0.0
 11
-2.563622940083416
 21
-29.84550620056602
 31
0.0
  0
LINE
  5
2B2
  8
BLATTANSICHT_1_GEOMETRIEAN
  6
VOLLINIE
 62
    18
 10
-2.58356483940573
 20
-29.8425153973529
 30
0.0
 11
-2.583611018443352
 21
-29.84250847161269
 31
0.0
  0
LINE
  5
2B3
  8
BLATTANSICHT_1_GEOMETRIEAN
  6
VOLLINIE
 62
    18
 10
-2.563622940083416
 20
-29.84550620056602
 30
0.0
 11
-2.567338335853298
 21
-29.8449489809438
 31
0.0
  0
LINE
  5
2B4
  8
BLATTANSICHT_1_GEOMETRIEAN
  6
VOLLINIE
 62
    18
 10
-2.927906573248954
 20
-29.80229557833594
 30
0.0
 11
-3.127979518184304
 21
-29.79613139673133
 31
0.0
  0
LINE
  5
2B5
  8
BLATTANSICHT_1_GEOMETRIEAN
  6
VOLLINIE
 62
    18
 10
-2.854815311246807
 20
-29.80763154176805
 30
0.0
 11
-2.927906573248954
 21
-29.80229557833594
 31
0.0
  0
LINE
  5
2B6
  8
BLATTANSICHT_1_GEOMETRIEAN
  6
VOLLINIE
 62
    18
 10
-1.590425458467244
 20
-30.18284176530255
 30
0.0
 11
-1.769608397302218
 21
-30.0936192633179
 31
0.0
  0
LINE
  5
2B7
  8
BLATTANSICHT_1_GEOMETRIEAN
  6
VOLLINIE
 62
    18
 10
-1.55589313290717
 20
-30.20165527799905
 30
0.0
 11
-1.590425458467244
 21
-30.18284176530255
 31
0.0
  0
LINE
  5
2B8
  8
BLATTANSICHT_1_GEOMETRIEAN
  6
VOLLINIE
 62
    18
 10
-1.263856099359136
 20
-30.38388725469661
 30
0.0
 11
-1.271495902888044
 21
-30.37885310778662
 31
0.0
  0
LINE
  5
2B9
  8
BLATTANSICHT_1_GEOMETRIEAN
  6
VOLLINIE
 62
    18
 10
-1.250214566107457
 20
-30.39349143157363
 30
0.0
 11
-1.263856099359136
 21
-30.38388725469661
 31
0.0
  0
LINE
  5
2BA
  8
BLATTANSICHT_1_GEOMETRIEAN
  6
VOLLINIE
 62
    18
 10
-1.417074988832868
 20
-30.2829257056101
 30
0.0
 11
-1.55589313290717
 21
-30.20165527799905
 31
0.0
  0
LINE
  5
2BB
  8
BLATTANSICHT_1_GEOMETRIEAN
  6
VOLLINIE
 62
    18
 10
-1.322376258556877
 20
-30.3438551596616
 30
0.0
 11
-1.417074988832868
 21
-30.2829257056101
 31
0.0
  0
LINE
  5
2BC
  8
BLATTANSICHT_1_GEOMETRIEAN
  6
VOLLINIE
 62
    18
 10
-1.250214566107457
 20
-30.39349143157363
 30
0.0
 11
-1.322376258556877
 21
-30.3438551596616
 31
0.0
  0
LINE
  5
2BD
  8
BLATTANSICHT_1_GEOMETRIEAN
  6
VOLLINIE
 62
    18
 10
-1.149504871764888
 20
-30.46773304388459
 30
0.0
 11
-1.250214566107457
 21
-30.39349143157363
 31
0.0
  0
LINE
  5
2BE
  8
BLATTANSICHT_1_GEOMETRIEAN
  6
VOLLINIE
 62
    18
 10
-1.038919786068319
 20
-30.55648695866437
 30
0.0
 11
-1.090477149028436
 21
-30.51411952952292
 31
0.0
  0
LINE
  5
2BF
  8
BLATTANSICHT_1_GEOMETRIEAN
  6
VOLLINIE
 62
    18
 10
-1.011374014875063
 20
-30.58058148368694
 30
0.0
 11
-1.038919786068319
 21
-30.55648695866437
 31
0.0
  0
LINE
  5
2C0
  8
BLATTANSICHT_1_GEOMETRIEAN
  6
VOLLINIE
 62
    18
 10
-1.090477149028436
 20
-30.51411952952292
 30
0.0
 11
-1.149504871764888
 21
-30.46773304388459
 31
0.0
  0
LINE
  5
2C1
  8
BLATTANSICHT_1_GEOMETRIEAN
  6
VOLLINIE
 62
    18
 10
-0.9851056171511502
 20
-30.60265202569738
 30
0.0
 11
-1.090477149028436
 21
-30.51411952952292
 31
0.0
  0
LINE
  5
2C2
  8
BLATTANSICHT_1_GEOMETRIEAN
  6
VOLLINIE
 62
    18
 10
-0.7947657682248408
 20
-30.78369607235184
 30
0.0
 11
-0.8298824775627196
 21
-30.74803436130685
 31
0.0
  0
LINE
  5
2C3
  8
BLATTANSICHT_1_GEOMETRIEAN
  6
VOLLINIE
 62
    18
 10
-0.6845001435974728
 20
-30.90325749976844
 30
0.0
 11
-0.7947657682248408
 21
-30.78369607235184
 31
0.0
  0
LINE
  5
2C4
  8
BLATTANSICHT_1_GEOMETRIEAN
  6
VOLLINIE
 62
    18
 10
-0.9384686763329706
 20
-30.64435241576421
 30
0.0
 11
-0.9851056171511502
 21
-30.60265202569738
 31
0.0
  0
LINE
  5
2C5
  8
BLATTANSICHT_1_GEOMETRIEAN
  6
VOLLINIE
 62
    18
 10
-0.8298824775627196
 20
-30.74803436130685
 30
0.0
 11
-0.9384686763329706
 21
-30.64435241576421
 31
0.0
  0
LINE
  5
2C6
  8
BLATTANSICHT_1_GEOMETRIEAN
  6
VOLLINIE
 62
    18
 10
-0.4187717662156439
 20
-31.25094523460971
 30
0.0
 11
-0.4257032803060582
 21
-31.24052813838111
 31
0.0
  0
LINE
  5
2C7
  8
BLATTANSICHT_1_GEOMETRIEAN
  6
VOLLINIE
 62
    18
 10
-0.3133969558848611
 20
-31.42113139673135
 30
0.0
 11
-0.4187717662156439
 21
-31.25094523460971
 31
0.0
  0
LINE
  5
2C8
  8
BLATTANSICHT_1_GEOMETRIEAN
  6
VOLLINIE
 62
    18
 10
-0.0020461778726297
 20
-32.15672667899708
 30
0.0
 11
-0.0627276061526428
 21
-31.96597829842246
 31
0.0
  0
LINE
  5
2C9
  8
BLATTANSICHT_1_GEOMETRIEAN
  6
VOLLINIE
 62
    18
 10
-0.0000000001811998
 20
-32.16394993695887
 30
0.0
 11
-0.0020461778726297
 21
-32.15672667899708
 31
0.0
  0
LINE
  5
2CA
  8
BLATTANSICHT_1_GEOMETRIEAN
  6
VOLLINIE
 62
    18
 10
0.1204790708841355
 20
-32.9460474564238
 30
0.0
 11
0.1150619814618204
 21
-32.833571227828
 31
0.0
  0
LINE
  5
2CB
  8
BLATTANSICHT_1_GEOMETRIEAN
  6
VOLLINIE
 62
    18
 10
0.1220204788156971
 20
-33.04613139673133
 30
0.0
 11
0.1204790708841355
 21
-32.9460474564238
 31
0.0
  0
LINE
  5
2CC
  8
BLATTANSICHT_1_GEOMETRIEAN
  6
VOLLINIE
 62
    18
 10
0.094216280565687
 20
-32.62192127419465
 30
0.0
 11
0.1150619814618204
 21
-32.833571227828
 31
0.0
  0
LINE
  5
2CD
  8
BLATTANSICHT_1_GEOMETRIEAN
  6
VOLLINIE
 62
    18
 10
0.0595726427170075
 20
-32.41208785341651
 30
0.0
 11
0.094216280565687
 21
-32.62192127419465
 31
0.0
  0
LINE
  5
2CE
  8
BLATTANSICHT_1_GEOMETRIEAN
  6
VOLLINIE
 62
    18
 10
0.1150619814618204
 20
-32.833571227828
 30
0.0
 11
0.1220204788156971
 21
-33.04613139673133
 31
0.0
  0
LINE
  5
2CF
  8
BLATTANSICHT_1_GEOMETRIEAN
  6
VOLLINIE
 62
    18
 10
-0.0000000001811998
 20
-32.16394993695887
 30
0.0
 11
0.0595726427170075
 21
-32.41208785341651
 31
0.0
  0
LINE
  5
2D0
  8
BLATTANSICHT_1_GEOMETRIEAN
  6
VOLLINIE
 62
    18
 10
-0.0788576771137819
 20
-31.9212509626005
 30
0.0
 11
-0.0000000001811998
 21
-32.16394993695887
 31
0.0
  0
LINE
  5
2D1
  8
BLATTANSICHT_1_GEOMETRIEAN
  6
VOLLINIE
 62
    18
 10
-0.1765142042760492
 20
-31.68548725023487
 30
0.0
 11
-0.0788576771137819
 21
-31.9212509626005
 31
0.0
  0
LINE
  5
2D2
  8
BLATTANSICHT_1_GEOMETRIEAN
  6
VOLLINIE
 62
    18
 10
-0.2923674966995245
 20
-31.45811236155881
 30
0.0
 11
-0.1765142042760492
 21
-31.68548725023487
 31
0.0
  0
LINE
  5
2D3
  8
BLATTANSICHT_1_GEOMETRIEAN
  6
VOLLINIE
 62
    18
 10
-0.4257032803060582
 20
-31.24052813838111
 30
0.0
 11
-0.2923674966995245
 21
-31.45811236155881
 31
0.0
  0
LINE
  5
2D4
  8
BLATTANSICHT_1_GEOMETRIEAN
  6
VOLLINIE
 62
    18
 10
-0.5495811632531739
 20
-31.06765675306939
 30
0.0
 11
-0.4257032803060582
 21
-31.24052813838111
 31
0.0
  0
LINE
  5
2D5
  8
BLATTANSICHT_1_GEOMETRIEAN
  6
VOLLINIE
 62
    18
 10
-0.6845001435974728
 20
-30.90325749976844
 30
0.0
 11
-0.5495811632531739
 21
-31.06765675306939
 31
0.0
  0
LINE
  5
2D6
  8
BLATTANSICHT_1_GEOMETRIEAN
  6
VOLLINIE
 62
    18
 10
-0.8298824775627196
 20
-30.74803436130685
 30
0.0
 11
-0.6845001435974728
 21
-30.90325749976844
 31
0.0
  0
LINE
  5
2D7
  8
BLATTANSICHT_1_GEOMETRIEAN
  6
VOLLINIE
 62
    18
 10
-1.800535681135345
 20
-30.07958578734883
 30
0.0
 11
-1.55589313290717
 21
-30.20165527799905
 31
0.0
  0
LINE
  5
2D8
  8
BLATTANSICHT_1_GEOMETRIEAN
  6
VOLLINIE
 62
    18
 10
-2.054572565045103
 20
-29.97851057493454
 30
0.0
 11
-1.800535681135345
 21
-30.07958578734883
 31
0.0
  0
LINE
  5
2D9
  8
BLATTANSICHT_1_GEOMETRIEAN
  6
VOLLINIE
 62
    18
 10
-2.31620596261587
 20
-29.89914495122533
 30
0.0
 11
-2.054572565045103
 21
-29.97851057493454
 31
0.0
  0
LINE
  5
2DA
  8
BLATTANSICHT_1_GEOMETRIEAN
  6
VOLLINIE
 62
    18
 10
-2.583584291210377
 20
-29.84205058767531
 30
0.0
 11
-2.31620596261587
 21
-29.89914495122533
 31
0.0
  0
LINE
  5
2DB
  8
BLATTANSICHT_1_GEOMETRIEAN
  6
VOLLINIE
 62
    18
 10
-2.854815311246807
 20
-29.80763154176805
 30
0.0
 11
-2.583584291210377
 21
-29.84205058767531
 31
0.0
  0
LINE
  5
2DC
  8
BLATTANSICHT_1_GEOMETRIEAN
  6
VOLLINIE
 62
    18
 10
-3.127979518184304
 20
-29.79613139673133
 30
0.0
 11
-2.854815311246807
 21
-29.80763154176805
 31
0.0
  0
LINE
  5
2DD
  8
BLATTANSICHT_1_GEOMETRIEAN
  6
VOLLINIE
 62
    18
 10
-1.55589313290717
 20
-30.20165527799905
 30
0.0
 11
-1.322376258556877
 21
-30.3438551596616
 31
0.0
  0
LINE
  5
2DE
  8
BLATTANSICHT_1_GEOMETRIEAN
  6
VOLLINIE
 62
    18
 10
-1.322376258556877
 20
-30.3438551596616
 30
0.0
 11
-1.149504871764888
 21
-30.46773304388459
 31
0.0
  0
LINE
  5
2DF
  8
BLATTANSICHT_1_GEOMETRIEAN
  6
VOLLINIE
 62
    18
 10
-1.149504871764888
 20
-30.46773304388459
 30
0.0
 11
-0.9851056171511502
 21
-30.60265202569738
 31
0.0
  0
LINE
  5
2E0
  8
BLATTANSICHT_1_GEOMETRIEAN
  6
VOLLINIE
 62
    18
 10
-0.9851056171511502
 20
-30.60265202569738
 30
0.0
 11
-0.8298824775627196
 21
-30.74803436130685
 31
0.0
  0
LINE
  5
2E1
  8
BLATTANSICHT_1_GEOMETRIEAN
  6
VOLLINIE
 62
    18
 10
-2.353770512257793
 20
-34.90222166440095
 30
0.0
 11
-2.387616734902589
 21
-34.92031284743737
 31
0.0
  0
LINE
  5
2E2
  8
BLATTANSICHT_1_GEOMETRIEAN
  6
VOLLINIE
 62
    18
 10
-2.24430487470093
 20
-34.83858707435893
 30
0.0
 11
-2.28201353043208
 21
-34.86203582348771
 31
0.0
  0
LINE
  5
2E3
  8
BLATTANSICHT_1_GEOMETRIEAN
  6
VOLLINIE
 62
    18
 10
-2.14359156368915
 20
-34.76954522194519
 30
0.0
 11
-2.179685858699646
 21
-34.79541002811553
 31
0.0
  0
LINE
  5
2E4
  8
BLATTANSICHT_1_GEOMETRIEAN
  6
VOLLINIE
 62
    18
 10
-2.04933801846205
 20
-34.69428223485127
 30
0.0
 11
-2.079004475706856
 21
-34.71862886719776
 31
0.0
  0
LINE
  5
2E5
  8
BLATTANSICHT_1_GEOMETRIEAN
  6
VOLLINIE
 62
    18
 10
-9.344627782184292
 20
-34.04613139673133
 30
0.0
 11
-13.37797952169506
 21
-34.04613139673133
 31
0.0
  0
LINE
  5
2E6
  8
BLATTANSICHT_1_GEOMETRIEAN
  6
VOLLINIE
 62
    18
 10
-13.37797952169506
 20
-49.04613139673132
 30
0.0
 11
-9.344627782184292
 21
-49.04613139673132
 31
0.0
  0
LINE
  5
2E7
  8
BLATTANSICHT_1_GEOMETRIEAN
  6
VOLLINIE
 62
    18
 10
-8.594627782184293
 20
-34.04613139673133
 30
0.0
 11
-9.344627782184292
 21
-34.04613139673133
 31
0.0
  0
LINE
  5
2E8
  8
BLATTANSICHT_1_GEOMETRIEAN
  6
VOLLINIE
 62
    18
 10
-8.594627782184293
 20
-49.04613139673132
 30
0.0
 11
-8.594627782184293
 21
-34.04613139673133
 31
0.0
  0
LINE
  5
2E9
  8
BLATTANSICHT_1_GEOMETRIEAN
  6
VOLLINIE
 62
    18
 10
-9.344627782184292
 20
-34.04613139673133
 30
0.0
 11
-9.344627782184292
 21
-49.04613139673132
 31
0.0
  0
LINE
  5
2EA
  8
BLATTANSICHT_1_GEOMETRIEAN
  6
VOLLINIE
 62
    18
 10
-9.344627782184292
 20
-49.04613139673132
 30
0.0
 11
-8.594627782184293
 21
-49.04613139673132
 31
0.0
  0
LINE
  5
2EB
  8
BLATTANSICHT_1_GEOMETRIEAN
  6
VOLLINIE
 62
    18
 10
-14.83240278003155
 20
-34.04613139745801
 30
0.0
 11
-14.86656361506066
 21
-34.04613139745801
 31
0.0
  0
LINE
  5
2EC
  8
BLATTANSICHT_1_GEOMETRIEAN
  6
VOLLINIE
 62
    18
 10
-14.77575700015577
 20
-34.04613139745801
 30
0.0
 11
-14.83240278003155
 21
-34.04613139745801
 31
0.0
  0
LINE
  5
2ED
  8
BLATTANSICHT_1_GEOMETRIEAN
  6
VOLLINIE
 62
    18
 10
-14.6970573840202
 20
-34.04613139745801
 30
0.0
 11
-14.77575700015577
 21
-34.04613139745801
 31
0.0
  0
LINE
  5
2EE
  8
BLATTANSICHT_1_GEOMETRIEAN
  6
VOLLINIE
 62
    18
 10
-14.59690288322143
 20
-34.04613139745802
 30
0.0
 11
-14.6970573840202
 21
-34.04613139745801
 31
0.0
  0
LINE
  5
2EF
  8
BLATTANSICHT_1_GEOMETRIEAN
  6
VOLLINIE
 62
    18
 10
-14.47605573398254
 20
-34.04613139745802
 30
0.0
 11
-14.59690288322143
 21
-34.04613139745802
 31
0.0
  0
LINE
  5
2F0
  8
BLATTANSICHT_1_GEOMETRIEAN
  6
VOLLINIE
 62
    18
 10
-14.86656361506066
 20
-34.04613139745801
 30
0.0
 11
-14.87797952118429
 21
-34.04613139673133
 31
0.0
  0
LINE
  5
2F1
  8
BLATTANSICHT_1_GEOMETRIEAN
  6
VOLLINIE
 62
    18
 10
-14.33543565555234
 20
-34.04613139745802
 30
0.0
 11
-14.47605573398254
 21
-34.04613139745802
 31
0.0
  0
LINE
  5
2F2
  8
BLATTANSICHT_1_GEOMETRIEAN
  6
VOLLINIE
 62
    18
 10
-14.17611285202498
 20
-34.04613139745802
 30
0.0
 11
-14.33543565555234
 21
-34.04613139745802
 31
0.0
  0
LINE
  5
2F3
  8
BLATTANSICHT_1_GEOMETRIEAN
  6
VOLLINIE
 62
    18
 10
-13.99929986614082
 20
-34.04613139745802
 30
0.0
 11
-14.17611285202498
 21
-34.04613139745802
 31
0.0
  0
LINE
  5
2F4
  8
BLATTANSICHT_1_GEOMETRIEAN
  6
VOLLINIE
 62
    18
 10
-13.80634235148919
 20
-34.04613139745802
 30
0.0
 11
-13.99929986614082
 21
-34.04613139745802
 31
0.0
  0
LINE
  5
2F5
  8
BLATTANSICHT_1_GEOMETRIEAN
  6
VOLLINIE
 62
    18
 10
-13.59870883127208
 20
-34.04613139745802
 30
0.0
 11
-13.80634235148919
 21
-34.04613139745802
 31
0.0
  0
LINE
  5
2F6
  8
BLATTANSICHT_1_GEOMETRIEAN
  6
VOLLINIE
 62
    18
 10
-13.37797952169506
 20
-34.04613139673133
 30
0.0
 11
-13.59870883127208
 21
-34.04613139745802
 31
0.0
  0
LINE
  5
2F7
  8
BLATTANSICHT_1_GEOMETRIEAN
  6
VOLLINIE
 62
    18
 10
-13.37797952169506
 20
-49.04613139673132
 30
0.0
 11
-13.37797952169506
 21
-34.04613139673133
 31
0.0
  0
LINE
  5
2F8
  8
BLATTANSICHT_1_GEOMETRIEAN
  6
VOLLINIE
 62
    18
 10
-13.5987088310346
 20
-49.04613139673132
 30
0.0
 11
-13.37797952169506
 21
-49.04613139673132
 31
0.0
  0
LINE
  5
2F9
  8
BLATTANSICHT_1_GEOMETRIEAN
  6
VOLLINIE
 62
    18
 10
-13.80634235128306
 20
-49.04613139673132
 30
0.0
 11
-13.5987088310346
 21
-49.04613139673132
 31
0.0
  0
LINE
  5
2FA
  8
BLATTANSICHT_1_GEOMETRIEAN
  6
VOLLINIE
 62
    18
 10
-13.99929986597421
 20
-49.04613139673132
 30
0.0
 11
-13.80634235128306
 21
-49.04613139673132
 31
0.0
  0
LINE
  5
2FB
  8
BLATTANSICHT_1_GEOMETRIEAN
  6
VOLLINIE
 62
    18
 10
-14.17611285190601
 20
-49.04613139673132
 30
0.0
 11
-13.99929986597421
 21
-49.04613139673132
 31
0.0
  0
LINE
  5
2FC
  8
BLATTANSICHT_1_GEOMETRIEAN
  6
VOLLINIE
 62
    18
 10
-14.33543565548899
 20
-49.04613139673132
 30
0.0
 11
-14.17611285190601
 21
-49.04613139673132
 31
0.0
  0
LINE
  5
2FD
  8
BLATTANSICHT_1_GEOMETRIEAN
  6
VOLLINIE
 62
    18
 10
-14.47605573398259
 20
-49.04613139673132
 30
0.0
 11
-14.33543565548899
 21
-49.04613139673132
 31
0.0
  0
LINE
  5
2FE
  8
BLATTANSICHT_1_GEOMETRIEAN
  6
VOLLINIE
 62
    18
 10
-14.59690288331203
 20
-49.04613139673132
 30
0.0
 11
-14.47605573398259
 21
-49.04613139673132
 31
0.0
  0
LINE
  5
2FF
  8
BLATTANSICHT_1_GEOMETRIEAN
  6
VOLLINIE
 62
    18
 10
-14.69705738420096
 20
-49.04613139673132
 30
0.0
 11
-14.59690288331203
 21
-49.04613139673132
 31
0.0
  0
LINE
  5
300
  8
BLATTANSICHT_1_GEOMETRIEAN
  6
VOLLINIE
 62
    18
 10
-14.77575700042548
 20
-49.04613139673132
 30
0.0
 11
-14.69705738420096
 21
-49.04613139673132
 31
0.0
  0
LINE
  5
301
  8
BLATTANSICHT_1_GEOMETRIEAN
  6
VOLLINIE
 62
    18
 10
-14.8324027803882
 20
-49.04613139673132
 30
0.0
 11
-14.77575700042548
 21
-49.04613139673132
 31
0.0
  0
LINE
  5
302
  8
BLATTANSICHT_1_GEOMETRIEAN
  6
VOLLINIE
 62
    18
 10
-14.8665636155015
 20
-49.04613139673132
 30
0.0
 11
-14.8324027803882
 21
-49.04613139673132
 31
0.0
  0
LINE
  5
303
  8
BLATTANSICHT_1_GEOMETRIEAN
  6
VOLLINIE
 62
    18
 10
-14.87797952118429
 20
-49.04613139673132
 30
0.0
 11
-14.8665636155015
 21
-49.04613139673132
 31
0.0
  0
LINE
  5
304
  8
BLATTANSICHT_1_GEOMETRIEAN
  6
VOLLINIE
 62
    18
 10
-14.87797952118429
 20
-34.04613139673133
 30
0.0
 11
-14.87797952118429
 21
-49.04613139673132
 31
0.0
  0
LINE
  5
305
  8
BLATTANSICHT_1_GEOMETRIEAN
  6
VOLLINIE
 62
    18
 10
-3.606954817473825
 20
-0.0000000008619961
 30
0.0
 11
-3.529140959998138
 21
-0.0000000008619961
 31
0.0
  0
LINE
  5
306
  8
BLATTANSICHT_1_GEOMETRIEAN
  6
VOLLINIE
 62
    18
 10
-3.683758988156529
 20
-0.0000000008619961
 30
0.0
 11
-3.606954817473825
 21
-0.0000000008619961
 31
0.0
  0
LINE
  5
307
  8
BLATTANSICHT_1_GEOMETRIEAN
  6
VOLLINIE
 62
    18
 10
-3.759407182804114
 20
-0.0000000008619961
 30
0.0
 11
-3.683758988156529
 21
-0.0000000008619961
 31
0.0
  0
LINE
  5
308
  8
BLATTANSICHT_1_GEOMETRIEAN
  6
VOLLINIE
 62
    18
 10
-3.833538789153657
 20
-0.0000000008619961
 30
0.0
 11
-3.759407182804114
 21
-0.0000000008619961
 31
0.0
  0
LINE
  5
309
  8
BLATTANSICHT_1_GEOMETRIEAN
  6
VOLLINIE
 62
    18
 10
-3.905793194942246
 20
-0.0000000008620074
 30
0.0
 11
-3.833538789153657
 21
-0.0000000008619961
 31
0.0
  0
LINE
  5
30A
  8
BLATTANSICHT_1_GEOMETRIEAN
  6
VOLLINIE
 62
    18
 10
-3.976170400169868
 20
-0.0000000008619961
 30
0.0
 11
-3.905793194942246
 21
-0.0000000008620074
 31
0.0
  0
LINE
  5
30B
  8
BLATTANSICHT_1_GEOMETRIEAN
  6
VOLLINIE
 62
    18
 10
-4.044670404836524
 20
-0.0000000008619961
 30
0.0
 11
-3.976170400169868
 21
-0.0000000008619961
 31
0.0
  0
LINE
  5
30C
  8
BLATTANSICHT_1_GEOMETRIEAN
  6
VOLLINIE
 62
    18
 10
-4.110968660987273
 20
-0.0000000008619961
 30
0.0
 11
-4.044670404836524
 21
-0.0000000008619961
 31
0.0
  0
LINE
  5
30D
  8
BLATTANSICHT_1_GEOMETRIEAN
  6
VOLLINIE
 62
    18
 10
-4.174740630729715
 20
-0.0000000008619961
 30
0.0
 11
-4.110968660987273
 21
-0.0000000008619961
 31
0.0
  0
LINE
  5
30E
  8
BLATTANSICHT_1_GEOMETRIEAN
  6
VOLLINIE
 62
    18
 10
-4.235986314063874
 20
-0.0000000008619961
 30
0.0
 11
-4.174740630729715
 21
-0.0000000008619961
 31
0.0
  0
LINE
  5
30F
  8
BLATTANSICHT_1_GEOMETRIEAN
  6
VOLLINIE
 62
    18
 10
-4.294705710989738
 20
-0.0000000008619961
 30
0.0
 11
-4.235986314063874
 21
-0.0000000008619961
 31
0.0
  0
LINE
  5
310
  8
BLATTANSICHT_1_GEOMETRIEAN
  6
VOLLINIE
 62
    18
 10
-4.350622814209033
 20
-0.0000000008619961
 30
0.0
 11
-4.294705710989738
 21
-0.0000000008619961
 31
0.0
  0
LINE
  5
311
  8
BLATTANSICHT_1_GEOMETRIEAN
  6
VOLLINIE
 62
    18
 10
-4.403461626486062
 20
-0.0000000008620074
 30
0.0
 11
-4.350622814209033
 21
-0.0000000008619961
 31
0.0
  0
LINE
  5
312
  8
BLATTANSICHT_1_GEOMETRIEAN
  6
VOLLINIE
 62
    18
 10
-4.453222147820838
 20
-0.0000000008619961
 30
0.0
 11
-4.403461626486062
 21
-0.0000000008620074
 31
0.0
  0
LINE
  5
313
  8
BLATTANSICHT_1_GEOMETRIEAN
  6
VOLLINIE
 62
    18
 10
-4.499904378213347
 20
-0.0000000008619961
 30
0.0
 11
-4.453222147820838
 21
-0.0000000008619961
 31
0.0
  0
LINE
  5
314
  8
BLATTANSICHT_1_GEOMETRIEAN
  6
VOLLINIE
 62
    18
 10
-4.543291465163425
 20
-0.0000000008619961
 30
0.0
 11
-4.499904378213347
 21
-0.0000000008619961
 31
0.0
  0
LINE
  5
315
  8
BLATTANSICHT_1_GEOMETRIEAN
  6
VOLLINIE
 62
    18
 10
-4.583166556170896
 20
-0.0000000008619961
 30
0.0
 11
-4.543291465163425
 21
-0.0000000008619961
 31
0.0
  0
LINE
  5
316
  8
BLATTANSICHT_1_GEOMETRIEAN
  6
VOLLINIE
 62
    18
 10
-4.61952965123576
 20
-0.0000000008619961
 30
0.0
 11
-4.583166556170896
 21
-0.0000000008619961
 31
0.0
  0
LINE
  5
317
  8
BLATTANSICHT_1_GEOMETRIEAN
  6
VOLLINIE
 62
    18
 10
-4.652380750358015
 20
-0.0000000008619961
 30
0.0
 11
-4.61952965123576
 21
-0.0000000008619961
 31
0.0
  0
LINE
  5
318
  8
BLATTANSICHT_1_GEOMETRIEAN
  6
VOLLINIE
 62
    18
 10
-4.681570477594144
 20
-0.0000000008619961
 30
0.0
 11
-4.652380750358015
 21
-0.0000000008619961
 31
0.0
  0
LINE
  5
319
  8
BLATTANSICHT_1_GEOMETRIEAN
  6
VOLLINIE
 62
    18
 10
-4.706949467063218
 20
-0.0000000008619961
 30
0.0
 11
-4.681570477594144
 21
-0.0000000008619961
 31
0.0
  0
LINE
  5
31A
  8
BLATTANSICHT_1_GEOMETRIEAN
  6
VOLLINIE
 62
    18
 10
-4.728517718765247
 20
-0.0000000008619961
 30
0.0
 11
-4.706949467063218
 21
-0.0000000008619961
 31
0.0
  0
LINE
  5
31B
  8
BLATTANSICHT_1_GEOMETRIEAN
  6
VOLLINIE
 62
    18
 10
-4.746275232700232
 20
-0.0000000008619961
 30
0.0
 11
-4.728517718765247
 21
-0.0000000008619961
 31
0.0
  0
LINE
  5
31C
  8
BLATTANSICHT_1_GEOMETRIEAN
  6
VOLLINIE
 62
    18
 10
-4.760145859620249
 20
-0.0000000008619961
 30
0.0
 11
-4.746275232700232
 21
-0.0000000008619961
 31
0.0
  0
LINE
  5
31D
  8
BLATTANSICHT_1_GEOMETRIEAN
  6
VOLLINIE
 62
    18
 10
-4.770053450277409
 20
-0.0000000008619961
 30
0.0
 11
-4.760145859620249
 21
-0.0000000008619961
 31
0.0
  0
LINE
  5
31E
  8
BLATTANSICHT_1_GEOMETRIEAN
  6
VOLLINIE
 62
    18
 10
-4.775998004671712
 20
-0.0000000008619961
 30
0.0
 11
-4.770053450277409
 21
-0.0000000008619961
 31
0.0
  0
LINE
  5
31F
  8
BLATTANSICHT_1_GEOMETRIEAN
  6
VOLLINIE
 62
    18
 10
-4.777979522803135
 20
-0.0000000008619961
 30
0.0
 11
-4.775998004671712
 21
-0.0000000008619961
 31
0.0
  0
LINE
  5
320
  8
BLATTANSICHT_1_GEOMETRIEAN
  6
VOLLINIE
 62
    18
 10
-2.912611302070979
 20
1.499999999273303
 30
0.0
 11
-3.020064355333059
 21
1.499999999273303
 31
0.0
  0
LINE
  5
321
  8
BLATTANSICHT_1_GEOMETRIEAN
  6
VOLLINIE
 62
    18
 10
-2.806080488566589
 20
1.499999999273303
 30
0.0
 11
-2.912611302070979
 21
1.499999999273303
 31
0.0
  0
LINE
  5
322
  8
BLATTANSICHT_1_GEOMETRIEAN
  6
VOLLINIE
 62
    18
 10
-2.700928093547703
 20
1.499999999273303
 30
0.0
 11
-2.806080488566589
 21
1.499999999273303
 31
0.0
  0
LINE
  5
323
  8
BLATTANSICHT_1_GEOMETRIEAN
  6
VOLLINIE
 62
    18
 10
-2.597604398362183
 20
1.499999999273303
 30
0.0
 11
-2.700928093547703
 21
1.499999999273303
 31
0.0
  0
LINE
  5
324
  8
BLATTANSICHT_1_GEOMETRIEAN
  6
VOLLINIE
 62
    18
 10
-2.49655185095158
 20
1.499999999273303
 30
0.0
 11
-2.597604398362183
 21
1.499999999273303
 31
0.0
  0
LINE
  5
325
  8
BLATTANSICHT_1_GEOMETRIEAN
  6
VOLLINIE
 62
    18
 10
-2.37889519114354
 20
1.499999999273303
 30
0.0
 11
-2.49655185095158
 21
1.499999999273303
 31
0.0
  0
LINE
  5
326
  8
BLATTANSICHT_1_GEOMETRIEAN
  6
VOLLINIE
 62
    18
 10
-2.265856885217808
 20
1.499999999273303
 30
0.0
 11
-2.37889519114354
 21
1.499999999273303
 31
0.0
  0
LINE
  5
327
  8
BLATTANSICHT_1_GEOMETRIEAN
  6
VOLLINIE
 62
    18
 10
-2.158133851905101
 20
1.499999999273303
 30
0.0
 11
-2.265856885217808
 21
1.499999999273303
 31
0.0
  0
LINE
  5
328
  8
BLATTANSICHT_1_GEOMETRIEAN
  6
VOLLINIE
 62
    18
 10
-2.056390239513633
 20
1.499999999273303
 30
0.0
 11
-2.158133851905101
 21
1.499999999273303
 31
0.0
  0
LINE
  5
329
  8
BLATTANSICHT_1_GEOMETRIEAN
  6
VOLLINIE
 62
    18
 10
-1.961253331234034
 20
1.499999999273303
 30
0.0
 11
-2.056390239513633
 21
1.499999999273303
 31
0.0
  0
LINE
  5
32A
  8
BLATTANSICHT_1_GEOMETRIEAN
  6
VOLLINIE
 62
    18
 10
-1.756054661453155
 20
1.499999999273303
 30
0.0
 11
-1.81894650987058
 21
1.499999999273303
 31
0.0
  0
LINE
  5
32B
  8
BLATTANSICHT_1_GEOMETRIEAN
  6
VOLLINIE
 62
    18
 10
-1.81894650987058
 20
1.499999999273303
 30
0.0
 11
-1.887443838487935
 21
1.499999999273303
 31
0.0
  0
LINE
  5
32C
  8
BLATTANSICHT_1_GEOMETRIEAN
  6
VOLLINIE
 62
    18
 10
-1.887443838487935
 20
1.499999999273303
 30
0.0
 11
-1.961253331234034
 21
1.499999999273303
 31
0.0
  0
LINE
  5
32D
  8
BLATTANSICHT_1_GEOMETRIEAN
  6
VOLLINIE
 62
    18
 10
-1.699037603570168
 20
1.499999999273303
 30
0.0
 11
-1.756054661453155
 21
1.499999999273303
 31
0.0
  0
LINE
  5
32E
  8
BLATTANSICHT_1_GEOMETRIEAN
  6
VOLLINIE
 62
    18
 10
-1.648139494723182
 20
1.499999999273303
 30
0.0
 11
-1.699037603570168
 21
1.499999999273303
 31
0.0
  0
LINE
  5
32F
  8
BLATTANSICHT_1_GEOMETRIEAN
  6
VOLLINIE
 62
    18
 10
-1.603578288441777
 20
1.499999999273303
 30
0.0
 11
-1.648139494723182
 21
1.499999999273303
 31
0.0
  0
LINE
  5
330
  8
BLATTANSICHT_1_GEOMETRIEAN
  6
VOLLINIE
 62
    18
 10
-1.555893132526576
 20
1.499999999273303
 30
0.0
 11
-1.603578288441777
 21
1.499999999273303
 31
0.0
  0
LINE
  5
331
  8
BLATTANSICHT_1_GEOMETRIEAN
  6
VOLLINIE
 62
    18
 10
-1.492095497673182
 20
0.0
 30
0.0
 11
-1.479549953498226
 21
0.0
 31
0.0
  0
LINE
  5
332
  8
BLATTANSICHT_1_GEOMETRIEAN
  6
VOLLINIE
 62
    18
 10
-1.517091106741142
 20
0.0
 30
0.0
 11
-1.492095497673182
 21
0.0
 31
0.0
  0
LINE
  5
333
  8
BLATTANSICHT_1_GEOMETRIEAN
  6
VOLLINIE
 62
    18
 10
-1.554346549028671
 20
0.0
 30
0.0
 11
-1.517091106741142
 21
0.0
 31
0.0
  0
LINE
  5
334
  8
BLATTANSICHT_1_GEOMETRIEAN
  6
VOLLINIE
 62
    18
 10
-1.60357828813096
 20
0.0
 30
0.0
 11
-1.554346549028671
 21
0.0
 31
0.0
  0
LINE
  5
335
  8
BLATTANSICHT_1_GEOMETRIEAN
  6
VOLLINIE
 62
    18
 10
-1.648139494688733
 20
0.0
 30
0.0
 11
-1.60357828813096
 21
0.0
 31
0.0
  0
LINE
  5
336
  8
BLATTANSICHT_1_GEOMETRIEAN
  6
VOLLINIE
 62
    18
 10
-1.699037603898379
 20
0.0
 30
0.0
 11
-1.648139494688733
 21
0.0
 31
0.0
  0
LINE
  5
337
  8
BLATTANSICHT_1_GEOMETRIEAN
  6
VOLLINIE
 62
    18
 10
-1.756054662225803
 20
0.0
 30
0.0
 11
-1.699037603898379
 21
0.0
 31
0.0
  0
LINE
  5
338
  8
BLATTANSICHT_1_GEOMETRIEAN
  6
VOLLINIE
 62
    18
 10
-1.818946509950566
 20
0.0
 30
0.0
 11
-1.756054662225803
 21
0.0
 31
0.0
  0
LINE
  5
339
  8
BLATTANSICHT_1_GEOMETRIEAN
  6
VOLLINIE
 62
    18
 10
-1.88744383774422
 20
0.0
 30
0.0
 11
-1.818946509950566
 21
0.0
 31
0.0
  0
LINE
  5
33A
  8
BLATTANSICHT_1_GEOMETRIEAN
  6
VOLLINIE
 62
    18
 10
-1.961253329545957
 20
0.0
 30
0.0
 11
-1.88744383774422
 21
0.0
 31
0.0
  0
LINE
  5
33B
  8
BLATTANSICHT_1_GEOMETRIEAN
  6
VOLLINIE
 62
    18
 10
-2.040058922496164
 20
0.0
 30
0.0
 11
-1.961253329545957
 21
0.0
 31
0.0
  0
LINE
  5
33C
  8
BLATTANSICHT_1_GEOMETRIEAN
  6
VOLLINIE
 62
    18
 10
-2.123523158340471
 20
0.0
 30
0.0
 11
-2.040058922496164
 21
0.0
 31
0.0
  0
LINE
  5
33D
  8
BLATTANSICHT_1_GEOMETRIEAN
  6
VOLLINIE
 62
    18
 10
-2.211288630416629
 20
0.0
 30
0.0
 11
-2.123523158340471
 21
0.0
 31
0.0
  0
LINE
  5
33E
  8
BLATTANSICHT_1_GEOMETRIEAN
  6
VOLLINIE
 62
    18
 10
-2.302979514920053
 20
0.0
 30
0.0
 11
-2.211288630416629
 21
0.0
 31
0.0
  0
LINE
  5
33F
  8
BLATTANSICHT_1_GEOMETRIEAN
  6
VOLLINIE
 62
    18
 10
-2.398203176112344
 20
0.0
 30
0.0
 11
-2.302979514920053
 21
0.0
 31
0.0
  0
LINE
  5
340
  8
BLATTANSICHT_1_GEOMETRIEAN
  6
VOLLINIE
 62
    18
 10
-2.496551851655591
 20
0.0
 30
0.0
 11
-2.398203176112344
 21
0.0
 31
0.0
  0
LINE
  5
341
  8
BLATTANSICHT_1_GEOMETRIEAN
  6
VOLLINIE
 62
    18
 10
-2.597604398538533
 20
0.0
 30
0.0
 11
-2.496551851655591
 21
0.0
 31
0.0
  0
LINE
  5
342
  8
BLATTANSICHT_1_GEOMETRIEAN
  6
VOLLINIE
 62
    18
 10
-2.700928093171452
 20
0.0
 30
0.0
 11
-2.597604398538533
 21
0.0
 31
0.0
  0
LINE
  5
343
  8
BLATTANSICHT_1_GEOMETRIEAN
  6
VOLLINIE
 62
    18
 10
-2.806080487619847
 20
0.0
 30
0.0
 11
-2.700928093171452
 21
0.0
 31
0.0
  0
LINE
  5
344
  8
BLATTANSICHT_1_GEOMETRIEAN
  6
VOLLINIE
 62
    18
 10
-2.844723352545386
 20
0.0
 30
0.0
 11
-2.806080487619847
 21
0.0
 31
0.0
  0
LINE
  5
345
  8
BLATTANSICHT_1_GEOMETRIEAN
  6
VOLLINIE
 62
    18
 10
-3.235894680519428
 20
1.499999999273303
 30
0.0
 11
-3.24588479613017
 21
1.499999999273303
 31
0.0
  0
LINE
  5
346
  8
BLATTANSICHT_1_GEOMETRIEAN
  6
VOLLINIE
 62
    18
 10
-1.754470166223798
 20
0.0
 30
0.0
 11
-1.502979516944757
 21
0.0
 31
0.0
  0
LINE
  5
347
  8
BLATTANSICHT_1_GEOMETRIEAN
  6
VOLLINIE
 62
    18
 10
-1.502979516944757
 20
0.0
 30
0.0
 11
-1.263856098887288
 21
0.0
 31
0.0
  0
LINE
  5
348
  8
BLATTANSICHT_1_GEOMETRIEAN
  6
VOLLINIE
 62
    18
 10
-1.263856098887288
 20
0.0
 30
0.0
 11
-1.038919785649971
 21
0.0
 31
0.0
  0
LINE
  5
349
  8
BLATTANSICHT_1_GEOMETRIEAN
  6
VOLLINIE
 62
    18
 10
-1.038919785649971
 20
0.0
 30
0.0
 11
-0.8298824783972831
 21
0.0
 31
0.0
  0
LINE
  5
34A
  8
BLATTANSICHT_1_GEOMETRIEAN
  6
VOLLINIE
 62
    18
 10
-2.016414051028653
 20
0.0
 30
0.0
 11
-1.754470166223798
 21
0.0
 31
0.0
  0
LINE
  5
34B
  8
BLATTANSICHT_1_GEOMETRIEAN
  6
VOLLINIE
 62
    18
 10
-2.286817620229358
 20
0.0
 30
0.0
 11
-2.016414051028653
 21
0.0
 31
0.0
  0
LINE
  5
34C
  8
BLATTANSICHT_1_GEOMETRIEAN
  6
VOLLINIE
 62
    18
 10
-3.127979518184315
 20
-0.0000000008619961
 30
0.0
 11
-2.844723352890313
 21
0.0
 31
0.0
  0
LINE
  5
34D
  8
BLATTANSICHT_1_GEOMETRIEAN
  6
VOLLINIE
 62
    18
 10
-2.563622939389591
 20
0.0
 30
0.0
 11
-2.286817620229358
 21
0.0
 31
0.0
  0
LINE
  5
34E
  8
BLATTANSICHT_1_GEOMETRIEAN
  6
VOLLINIE
 62
    18
 10
-2.844723352890313
 20
0.0
 30
0.0
 11
-2.563622939389591
 21
0.0
 31
0.0
  0
LINE
  5
34F
  8
BLATTANSICHT_1_GEOMETRIEAN
  6
VOLLINIE
 62
    18
 10
-2.316205962046056
 20
1.499999999273303
 30
0.0
 11
-2.583584290578016
 21
1.499999999273303
 31
0.0
  0
LINE
  5
350
  8
BLATTANSICHT_1_GEOMETRIEAN
  6
VOLLINIE
 62
    18
 10
-2.583584290578016
 20
1.499999999273303
 30
0.0
 11
-2.854815310554156
 21
1.499999999273303
 31
0.0
  0
LINE
  5
351
  8
BLATTANSICHT_1_GEOMETRIEAN
  6
VOLLINIE
 62
    18
 10
-1.555893132526576
 20
1.499999999273303
 30
0.0
 11
-1.800535680692587
 21
1.499999999273303
 31
0.0
  0
LINE
  5
352
  8
BLATTANSICHT_1_GEOMETRIEAN
  6
VOLLINIE
 62
    18
 10
-1.322376258235999
 20
1.499999999273303
 30
0.0
 11
-1.555893132526576
 21
1.499999999273303
 31
0.0
  0
LINE
  5
353
  8
BLATTANSICHT_1_GEOMETRIEAN
  6
VOLLINIE
 62
    18
 10
-2.054572564538885
 20
1.499999999273303
 30
0.0
 11
-2.316205962046056
 21
1.499999999273303
 31
0.0
  0
LINE
  5
354
  8
BLATTANSICHT_1_GEOMETRIEAN
  6
VOLLINIE
 62
    18
 10
-1.800535680692587
 20
1.499999999273303
 30
0.0
 11
-2.054572564538885
 21
1.499999999273303
 31
0.0
  0
LINE
  5
355
  8
BLATTANSICHT_1_GEOMETRIEAN
  6
VOLLINIE
 62
    18
 10
-2.854815310554156
 20
1.499999999273303
 30
0.0
 11
-3.127979518184315
 21
1.499999999138001
 31
0.0
  0
LINE
  5
356
  8
BLATTANSICHT_1_GEOMETRIEAN
  6
VOLLINIE
 62
    18
 10
-1.149504871425883
 20
1.499999999273303
 30
0.0
 11
-1.322376258235999
 21
1.499999999273303
 31
0.0
  0
LINE
  5
357
  8
BLATTANSICHT_1_GEOMETRIEAN
  6
VOLLINIE
 62
    18
 10
-0.9851056167978987
 20
1.499999999273303
 30
0.0
 11
-1.149504871425883
 21
1.499999999273303
 31
0.0
  0
LINE
  5
358
  8
BLATTANSICHT_1_GEOMETRIEAN
  6
VOLLINIE
 62
    18
 10
-0.829882477199429
 20
1.499999999273303
 30
0.0
 11
-0.9851056167978987
 21
1.499999999273303
 31
0.0
  0
LINE
  5
359
  8
BLATTANSICHT_1_GEOMETRIEAN
  6
VOLLINIE
 62
    18
 10
-0.6845001432317682
 20
1.499999999273303
 30
0.0
 11
-0.829882477199429
 21
1.499999999273303
 31
0.0
  0
LINE
  5
35A
  8
BLATTANSICHT_1_GEOMETRIEAN
  6
VOLLINIE
 62
    18
 10
-0.549581162889274
 20
1.499999999273303
 30
0.0
 11
-0.6845001432317682
 21
1.499999999273303
 31
0.0
  0
LINE
  5
35B
  8
BLATTANSICHT_1_GEOMETRIEAN
  6
VOLLINIE
 62
    18
 10
-0.4257032799483285
 20
1.499999999273303
 30
0.0
 11
-0.549581162889274
 21
1.499999999273303
 31
0.0
  0
LINE
  5
35C
  8
BLATTANSICHT_1_GEOMETRIEAN
  6
VOLLINIE
 62
    18
 10
-0.2923674963606999
 20
1.499999999273303
 30
0.0
 11
-0.4257032799483285
 21
1.499999999273303
 31
0.0
  0
LINE
  5
35D
  8
BLATTANSICHT_1_GEOMETRIEAN
  6
VOLLINIE
 62
    18
 10
-0.1765142039611492
 20
1.499999999273303
 30
0.0
 11
-0.2923674963606999
 21
1.499999999273303
 31
0.0
  0
LINE
  5
35E
  8
BLATTANSICHT_1_GEOMETRIEAN
  6
VOLLINIE
 62
    18
 10
0.0595726429302534
 20
1.499999999273303
 30
0.0
 11
0.0000000000708263
 21
1.499999999273303
 31
0.0
  0
LINE
  5
35F
  8
BLATTANSICHT_1_GEOMETRIEAN
  6
VOLLINIE
 62
    18
 10
-0.0788576768278486
 20
1.499999999273303
 30
0.0
 11
-0.1765142039611492
 21
1.499999999273303
 31
0.0
  0
LINE
  5
360
  8
BLATTANSICHT_1_GEOMETRIEAN
  6
VOLLINIE
 62
    18
 10
0.0000000000708263
 20
1.499999999273303
 30
0.0
 11
-0.0788576768278486
 21
1.499999999273303
 31
0.0
  0
LINE
  5
361
  8
BLATTANSICHT_1_GEOMETRIEAN
  6
VOLLINIE
 62
    18
 10
0.0942162806871937
 20
1.499999999273303
 30
0.0
 11
0.0595726429302534
 21
1.499999999273303
 31
0.0
  0
LINE
  5
362
  8
BLATTANSICHT_1_GEOMETRIEAN
  6
VOLLINIE
 62
    18
 10
0.1150619815441747
 20
1.499999999273303
 30
0.0
 11
0.0942162806871937
 21
1.499999999273303
 31
0.0
  0
LINE
  5
363
  8
BLATTANSICHT_1_GEOMETRIEAN
  6
VOLLINIE
 62
    18
 10
0.1220204788156858
 20
1.499999999138001
 30
0.0
 11
0.1150619815441747
 21
1.499999999273303
 31
0.0
  0
LINE
  5
364
  8
BLATTANSICHT_1_GEOMETRIEAN
  6
VOLLINIE
 62
    18
 10
0.0595726428927591
 20
0.0
 30
0.0
 11
0.0942162806212967
 21
0.0
 31
0.0
  0
LINE
  5
365
  8
BLATTANSICHT_1_GEOMETRIEAN
  6
VOLLINIE
 62
    18
 10
0.0942162806212967
 20
0.0
 30
0.0
 11
0.1150619814586282
 21
0.0
 31
0.0
  0
LINE
  5
366
  8
BLATTANSICHT_1_GEOMETRIEAN
  6
VOLLINIE
 62
    18
 10
0.1150619814586282
 20
0.0
 30
0.0
 11
0.1220204788156858
 21
-0.0000000008619961
 31
0.0
  0
LINE
  5
367
  8
BLATTANSICHT_1_GEOMETRIEAN
  6
VOLLINIE
 62
    18
 10
0.0
 20
0.0
 30
0.0
 11
0.0595726428927591
 21
0.0
 31
0.0
  0
LINE
  5
368
  8
BLATTANSICHT_1_GEOMETRIEAN
  6
VOLLINIE
 62
    18
 10
-0.0788576769635115
 20
0.0
 30
0.0
 11
0.0
 21
0.0
 31
0.0
  0
LINE
  5
369
  8
BLATTANSICHT_1_GEOMETRIEAN
  6
VOLLINIE
 62
    18
 10
-0.1765142041919916
 20
0.0
 30
0.0
 11
-0.0788576769635115
 21
0.0
 31
0.0
  0
LINE
  5
36A
  8
BLATTANSICHT_1_GEOMETRIEAN
  6
VOLLINIE
 62
    18
 10
-0.2923674967154629
 20
0.0
 30
0.0
 11
-0.1765142041919916
 21
0.0
 31
0.0
  0
LINE
  5
36B
  8
BLATTANSICHT_1_GEOMETRIEAN
  6
VOLLINIE
 62
    18
 10
-0.4257032804538357
 20
0.0
 30
0.0
 11
-0.2923674967154629
 21
0.0
 31
0.0
  0
LINE
  5
36C
  8
BLATTANSICHT_1_GEOMETRIEAN
  6
VOLLINIE
 62
    18
 10
0.1220204788156858
 20
-0.0000000008619961
 30
0.0
 11
0.1220204788156858
 21
1.499999999138001
 31
0.0
  0
LINE
  5
36D
  8
BLATTANSICHT_1_GEOMETRIEAN
  6
VOLLINIE
 62
    18
 10
-0.5495811636006276
 20
0.0
 30
0.0
 11
-0.4257032804538357
 21
0.0
 31
0.0
  0
LINE
  5
36E
  8
BLATTANSICHT_1_GEOMETRIEAN
  6
VOLLINIE
 62
    18
 10
-0.6845001441747199
 20
0.0
 30
0.0
 11
-0.5495811636006276
 21
0.0
 31
0.0
  0
LINE
  5
36F
  8
BLATTANSICHT_1_GEOMETRIEAN
  6
VOLLINIE
 62
    18
 10
-0.8298824783972831
 20
0.0
 30
0.0
 11
-0.6845001441747199
 21
0.0
 31
0.0
  0
LINE
  5
370
  8
BLATTANSICHT_1_GEOMETRIEAN
  6
VOLLINIE
 62
    18
 10
-6.804543078342197
 20
1.499999999273303
 30
0.0
 11
-6.841376297606744
 21
1.499999999273303
 31
0.0
  0
LINE
  5
371
  8
BLATTANSICHT_1_GEOMETRIEAN
  6
VOLLINIE
 62
    18
 10
-6.841376297606744
 20
1.499999999273303
 30
0.0
 11
-6.879162113164053
 21
1.499999999273303
 31
0.0
  0
LINE
  5
372
  8
BLATTANSICHT_1_GEOMETRIEAN
  6
VOLLINIE
 62
    18
 10
-6.879162113164053
 20
1.499999999273303
 30
0.0
 11
-6.917667562892021
 21
1.499999999273303
 31
0.0
  0
LINE
  5
373
  8
BLATTANSICHT_1_GEOMETRIEAN
  6
VOLLINIE
 62
    18
 10
-6.917667562892021
 20
1.499999999273303
 30
0.0
 11
-6.956655247884497
 21
1.499999999273303
 31
0.0
  0
LINE
  5
374
  8
BLATTANSICHT_1_GEOMETRIEAN
  6
VOLLINIE
 62
    18
 10
-6.956655247884497
 20
1.499999999273303
 30
0.0
 11
-6.995884796184306
 21
1.499999999608394
 31
0.0
  0
LINE
  5
375
  8
BLATTANSICHT_1_GEOMETRIEAN
  6
VOLLINIE
 62
    18
 10
-6.768889544370079
 20
1.499999999273303
 30
0.0
 11
-6.804543078342197
 21
1.499999999273303
 31
0.0
  0
LINE
  5
376
  8
BLATTANSICHT_1_GEOMETRIEAN
  6
VOLLINIE
 62
    18
 10
-6.734635511640602
 20
1.499999999273303
 30
0.0
 11
-6.768889544370079
 21
1.499999999273303
 31
0.0
  0
LINE
  5
377
  8
BLATTANSICHT_1_GEOMETRIEAN
  6
VOLLINIE
 62
    18
 10
-6.70199216766052
 20
1.499999999273303
 30
0.0
 11
-6.734635511640602
 21
1.499999999273303
 31
0.0
  0
LINE
  5
378
  8
BLATTANSICHT_1_GEOMETRIEAN
  6
VOLLINIE
 62
    18
 10
-6.671160769504619
 20
1.499999999273303
 30
0.0
 11
-6.70199216766052
 21
1.499999999273303
 31
0.0
  0
LINE
  5
379
  8
BLATTANSICHT_1_GEOMETRIEAN
  6
VOLLINIE
 62
    18
 10
-6.642331402998941
 20
1.499999999273303
 30
0.0
 11
-6.671160769504619
 21
1.499999999273303
 31
0.0
  0
LINE
  5
37A
  8
BLATTANSICHT_1_GEOMETRIEAN
  6
VOLLINIE
 62
    18
 10
-6.615681812027218
 20
1.499999999273303
 30
0.0
 11
-6.642331402998941
 21
1.499999999273303
 31
0.0
  0
LINE
  5
37B
  8
BLATTANSICHT_1_GEOMETRIEAN
  6
VOLLINIE
 62
    18
 10
-6.591376298704761
 20
1.499999999273303
 30
0.0
 11
-6.615681812027218
 21
1.499999999273303
 31
0.0
  0
LINE
  5
37C
  8
BLATTANSICHT_1_GEOMETRIEAN
  6
VOLLINIE
 62
    18
 10
-6.569564714592032
 20
1.499999999273303
 30
0.0
 11
-6.591376298704761
 21
1.499999999273303
 31
0.0
  0
LINE
  5
37D
  8
BLATTANSICHT_1_GEOMETRIEAN
  6
VOLLINIE
 62
    18
 10
-6.55038153534778
 20
1.499999999273303
 30
0.0
 11
-6.569564714592032
 21
1.499999999273303
 31
0.0
  0
LINE
  5
37E
  8
BLATTANSICHT_1_GEOMETRIEAN
  6
VOLLINIE
 62
    18
 10
-6.533945031641954
 20
1.499999999273303
 30
0.0
 11
-6.55038153534778
 21
1.499999999273303
 31
0.0
  0
LINE
  5
37F
  8
BLATTANSICHT_1_GEOMETRIEAN
  6
VOLLINIE
 62
    18
 10
-6.520356539313906
 20
1.499999999273303
 30
0.0
 11
-6.533945031641954
 21
1.499999999273303
 31
0.0
  0
LINE
  5
380
  8
BLATTANSICHT_1_GEOMETRIEAN
  6
VOLLINIE
 62
    18
 10
-6.509699836915449
 20
1.499999999273303
 30
0.0
 11
-6.520356539313906
 21
1.499999999273303
 31
0.0
  0
LINE
  5
381
  8
BLATTANSICHT_1_GEOMETRIEAN
  6
VOLLINIE
 62
    18
 10
-6.502040626562672
 20
1.499999999273303
 30
0.0
 11
-6.509699836915449
 21
1.499999999273303
 31
0.0
  0
LINE
  5
382
  8
BLATTANSICHT_1_GEOMETRIEAN
  6
VOLLINIE
 62
    18
 10
-6.497426129835888
 20
1.499999999273303
 30
0.0
 11
-6.502040626562672
 21
1.499999999273303
 31
0.0
  0
LINE
  5
383
  8
BLATTANSICHT_1_GEOMETRIEAN
  6
VOLLINIE
 62
    18
 10
-6.495884796184307
 20
1.499999999138001
 30
0.0
 11
-6.497426129835888
 21
1.499999999273303
 31
0.0
  0
LINE
  5
384
  8
BLATTANSICHT_1_GEOMETRIEAN
  6
VOLLINIE
 62
    18
 10
-6.495884796184307
 20
-0.0000000008619961
 30
0.0
 11
-6.495884796184307
 21
1.499999999138001
 31
0.0
  0
LINE
  5
385
  8
BLATTANSICHT_1_GEOMETRIEAN
  6
VOLLINIE
 62
    18
 10
-6.497426129383091
 20
0.0
 30
0.0
 11
-6.495884796184307
 21
-0.0000000008619961
 31
0.0
  0
LINE
  5
386
  8
BLATTANSICHT_1_GEOMETRIEAN
  6
VOLLINIE
 62
    18
 10
-6.502040626282863
 20
0.0
 30
0.0
 11
-6.497426129383091
 21
0.0
 31
0.0
  0
LINE
  5
387
  8
BLATTANSICHT_1_GEOMETRIEAN
  6
VOLLINIE
 62
    18
 10
-6.5096998368936
 20
0.0
 30
0.0
 11
-6.502040626282863
 21
0.0
 31
0.0
  0
LINE
  5
388
  8
BLATTANSICHT_1_GEOMETRIEAN
  6
VOLLINIE
 62
    18
 10
-6.520356539632088
 20
0.0
 30
0.0
 11
-6.5096998368936
 21
0.0
 31
0.0
  0
LINE
  5
389
  8
BLATTANSICHT_1_GEOMETRIEAN
  6
VOLLINIE
 62
    18
 10
-6.533945032378259
 20
0.0
 30
0.0
 11
-6.520356539632088
 21
0.0
 31
0.0
  0
LINE
  5
38A
  8
BLATTANSICHT_1_GEOMETRIEAN
  6
VOLLINIE
 62
    18
 10
-6.550381536382267
 20
0.0
 30
0.0
 11
-6.533945032378259
 21
0.0
 31
0.0
  0
LINE
  5
38B
  8
BLATTANSICHT_1_GEOMETRIEAN
  6
VOLLINIE
 62
    18
 10
-6.569564715933637
 20
0.0
 30
0.0
 11
-6.550381536382267
 21
0.0
 31
0.0
  0
LINE
  5
38C
  8
BLATTANSICHT_1_GEOMETRIEAN
  6
VOLLINIE
 62
    18
 10
-6.591376300359731
 20
0.0
 30
0.0
 11
-6.569564715933637
 21
0.0
 31
0.0
  0
LINE
  5
38D
  8
BLATTANSICHT_1_GEOMETRIEAN
  6
VOLLINIE
 62
    18
 10
-6.615681813998973
 20
0.0
 30
0.0
 11
-6.591376300359731
 21
0.0
 31
0.0
  0
LINE
  5
38E
  8
BLATTANSICHT_1_GEOMETRIEAN
  6
VOLLINIE
 62
    18
 10
-6.642331405287908
 20
0.0
 30
0.0
 11
-6.615681813998973
 21
0.0
 31
0.0
  0
LINE
  5
38F
  8
BLATTANSICHT_1_GEOMETRIEAN
  6
VOLLINIE
 62
    18
 10
-6.671160771487923
 20
0.0
 30
0.0
 11
-6.642331405287908
 21
0.0
 31
0.0
  0
LINE
  5
390
  8
BLATTANSICHT_1_GEOMETRIEAN
  6
VOLLINIE
 62
    18
 10
-6.701992169253057
 20
0.0
 30
0.0
 11
-6.671160771487923
 21
0.0
 31
0.0
  0
LINE
  5
391
  8
BLATTANSICHT_1_GEOMETRIEAN
  6
VOLLINIE
 62
    18
 10
-6.734635512766299
 20
0.0
 30
0.0
 11
-6.701992169253057
 21
0.0
 31
0.0
  0
LINE
  5
392
  8
BLATTANSICHT_1_GEOMETRIEAN
  6
VOLLINIE
 62
    18
 10
-6.768889544962735
 20
0.0
 30
0.0
 11
-6.734635512766299
 21
0.0
 31
0.0
  0
LINE
  5
393
  8
BLATTANSICHT_1_GEOMETRIEAN
  6
VOLLINIE
 62
    18
 10
-6.804543078346235
 20
0.0
 30
0.0
 11
-6.768889544962735
 21
0.0
 31
0.0
  0
LINE
  5
394
  8
BLATTANSICHT_1_GEOMETRIEAN
  6
VOLLINIE
 62
    18
 10
-6.841376297617483
 20
0.0
 30
0.0
 11
-6.804543078346235
 21
0.0
 31
0.0
  0
LINE
  5
395
  8
BLATTANSICHT_1_GEOMETRIEAN
  6
VOLLINIE
 62
    18
 10
-6.879162113177624
 20
0.0
 30
0.0
 11
-6.841376297617483
 21
0.0
 31
0.0
  0
LINE
  5
396
  8
BLATTANSICHT_1_GEOMETRIEAN
  6
VOLLINIE
 62
    18
 10
-6.917667562904654
 20
0.0
 30
0.0
 11
-6.879162113177624
 21
0.0
 31
0.0
  0
LINE
  5
397
  8
BLATTANSICHT_1_GEOMETRIEAN
  6
VOLLINIE
 62
    18
 10
-6.956655247892562
 20
0.0
 30
0.0
 11
-6.917667562904654
 21
0.0
 31
0.0
  0
LINE
  5
398
  8
BLATTANSICHT_1_GEOMETRIEAN
  6
VOLLINIE
 62
    18
 10
-6.995884796184306
 20
-0.0000000008619961
 30
0.0
 11
-6.956655247892562
 21
0.0
 31
0.0
  0
LINE
  5
399
  8
BLATTANSICHT_1_GEOMETRIEAN
  6
VOLLINIE
 62
    18
 10
-12.62797952120641
 20
2.974228970474097
 30
0.0
 11
-12.73834417479632
 21
3.044539009779506
 31
0.0
  0
LINE
  5
39A
  8
BLATTANSICHT_1_GEOMETRIEAN
  6
VOLLINIE
 62
    18
 10
-12.73834417479632
 20
3.044539009779506
 30
0.0
 11
-12.84216093423602
 21
3.124200410984233
 31
0.0
  0
LINE
  5
39B
  8
BLATTANSICHT_1_GEOMETRIEAN
  6
VOLLINIE
 62
    18
 10
-12.84216093423602
 20
3.124200410984233
 30
0.0
 11
-12.93863969101572
 21
3.212606903238504
 31
0.0
  0
LINE
  5
39C
  8
BLATTANSICHT_1_GEOMETRIEAN
  6
VOLLINIE
 62
    18
 10
-10.07454004018431
 20
1.499999999138001
 30
0.0
 11
-12.62797952120641
 21
2.974228970474097
 31
0.0
  0
LINE
  5
39D
  8
BLATTANSICHT_1_GEOMETRIEAN
  6
VOLLINIE
 62
    18
 10
-10.62460572952463
 20
0.1206147570890131
 30
0.0
 11
-10.45820353235149
 21
0.0681483460138204
 31
0.0
  0
LINE
  5
39E
  8
BLATTANSICHT_1_GEOMETRIEAN
  6
VOLLINIE
 62
    18
 10
-10.7858019670489
 20
0.1873844247770779
 30
0.0
 11
-10.62460572952463
 21
0.1206147570890131
 31
0.0
  0
LINE
  5
39F
  8
BLATTANSICHT_1_GEOMETRIEAN
  6
VOLLINIE
 62
    18
 10
-10.94056544418431
 20
0.2679491921379994
 30
0.0
 11
-10.7858019670489
 21
0.1873844247770779
 31
0.0
  0
LINE
  5
3A0
  8
BLATTANSICHT_1_GEOMETRIEAN
  6
VOLLINIE
 62
    18
 10
-13.37797952122851
 20
1.675190864810205
 30
0.0
 11
-10.94056544418431
 21
0.2679491921379994
 31
0.0
  0
LINE
  5
3A1
  8
BLATTANSICHT_1_GEOMETRIEAN
  6
VOLLINIE
 62
    18
 10
-13.59870883085319
 20
1.815810944075718
 30
0.0
 11
-13.37797952122851
 21
1.675190864810205
 31
0.0
  0
LINE
  5
3A2
  8
BLATTANSICHT_1_GEOMETRIEAN
  6
VOLLINIE
 62
    18
 10
-13.80634235148806
 20
1.975133748224447
 30
0.0
 11
-13.59870883085319
 21
1.815810944075718
 31
0.0
  0
LINE
  5
3A3
  8
BLATTANSICHT_1_GEOMETRIEAN
  6
VOLLINIE
 62
    18
 10
-13.99929986650449
 20
2.151946734771622
 30
0.0
 11
-13.80634235148806
 21
1.975133748224447
 31
0.0
  0
LINE
  5
3A4
  8
BLATTANSICHT_1_GEOMETRIEAN
  6
VOLLINIE
 62
    18
 10
-14.77575699946668
 20
3.496809939830067
 30
0.0
 11
-14.69705738280625
 21
3.247206645034078
 31
0.0
  0
LINE
  5
3A5
  8
BLATTANSICHT_1_GEOMETRIEAN
  6
VOLLINIE
 62
    18
 10
-14.83240277975903
 20
3.75232254227971
 30
0.0
 11
-14.77575699946668
 21
3.496809939830067
 31
0.0
  0
LINE
  5
3A6
  8
BLATTANSICHT_1_GEOMETRIEAN
  6
VOLLINIE
 62
    18
 10
-14.86656361509095
 20
4.011799847192755
 30
0.0
 11
-14.83240277975903
 21
3.75232254227971
 31
0.0
  0
LINE
  5
3A7
  8
BLATTANSICHT_1_GEOMETRIEAN
  6
VOLLINIE
 62
    18
 10
-14.87797952118431
 20
4.273267075599241
 30
0.0
 11
-14.86656361509095
 21
4.011799847192755
 31
0.0
  0
LINE
  5
3A8
  8
BLATTANSICHT_1_GEOMETRIEAN
  6
VOLLINIE
 62
    18
 10
-14.69705738280625
 20
3.247206645034078
 30
0.0
 11
-14.59690288138151
 21
3.005412289682521
 31
0.0
  0
LINE
  5
3A9
  8
BLATTANSICHT_1_GEOMETRIEAN
  6
VOLLINIE
 62
    18
 10
-14.59690288138151
 20
3.005412289682521
 30
0.0
 11
-14.47605573142437
 21
2.773267074821756
 31
0.0
  0
LINE
  5
3AA
  8
BLATTANSICHT_1_GEOMETRIEAN
  6
VOLLINIE
 62
    18
 10
-14.77575700042549
 20
5.049724210049821
 30
0.0
 11
-14.8324027803882
 21
4.794211608190104
 31
0.0
  0
LINE
  5
3AB
  8
BLATTANSICHT_1_GEOMETRIEAN
  6
VOLLINIE
 62
    18
 10
-14.69705738420097
 20
5.299327504304557
 30
0.0
 11
-14.77575700042549
 21
5.049724210049821
 31
0.0
  0
LINE
  5
3AC
  8
BLATTANSICHT_1_GEOMETRIEAN
  6
VOLLINIE
 62
    18
 10
-14.59690288331204
 20
5.541121859177442
 30
0.0
 11
-14.69705738420097
 21
5.299327504304557
 31
0.0
  0
LINE
  5
3AD
  8
BLATTANSICHT_1_GEOMETRIEAN
  6
VOLLINIE
 62
    18
 10
-14.47605573398259
 20
5.773267073635234
 30
0.0
 11
-14.59690288331204
 21
5.541121859177442
 31
0.0
  0
LINE
  5
3AE
  8
BLATTANSICHT_1_GEOMETRIEAN
  6
VOLLINIE
 62
    18
 10
-14.8324027803882
 20
4.794211608190104
 30
0.0
 11
-14.86656361550153
 21
4.53473430390114
 31
0.0
  0
LINE
  5
3AF
  8
BLATTANSICHT_1_GEOMETRIEAN
  6
VOLLINIE
 62
    18
 10
-14.86656361550153
 20
4.53473430390114
 30
0.0
 11
-14.87797952118431
 21
4.273267075599241
 31
0.0
  0
LINE
  5
3B0
  8
BLATTANSICHT_1_GEOMETRIEAN
  6
VOLLINIE
 62
    18
 10
-13.80634235128307
 20
6.571400404622971
 30
0.0
 11
-13.99929986597422
 21
6.394587418467365
 31
0.0
  0
LINE
  5
3B1
  8
BLATTANSICHT_1_GEOMETRIEAN
  6
VOLLINIE
 62
    18
 10
-13.59870883103461
 20
6.730723208446784
 30
0.0
 11
-13.80634235128307
 21
6.571400404622971
 31
0.0
  0
LINE
  5
3B2
  8
BLATTANSICHT_1_GEOMETRIEAN
  6
VOLLINIE
 62
    18
 10
-13.37797952169509
 20
6.871343287196412
 30
0.0
 11
-13.59870883103461
 21
6.730723208446784
 31
0.0
  0
LINE
  5
3B3
  8
BLATTANSICHT_1_GEOMETRIEAN
  6
VOLLINIE
 62
    18
 10
-13.99929986597422
 20
6.394587418467365
 30
0.0
 11
-14.17611285190603
 21
6.201629903571121
 31
0.0
  0
LINE
  5
3B4
  8
BLATTANSICHT_1_GEOMETRIEAN
  6
VOLLINIE
 62
    18
 10
-14.335435655489
 20
5.993996383137849
 30
0.0
 11
-14.47605573398259
 21
5.773267073635234
 31
0.0
  0
LINE
  5
3B5
  8
BLATTANSICHT_1_GEOMETRIEAN
  6
VOLLINIE
 62
    18
 10
-14.17611285190603
 20
6.201629903571121
 30
0.0
 11
-14.335435655489
 21
5.993996383137849
 31
0.0
  0
LINE
  5
3B6
  8
BLATTANSICHT_1_GEOMETRIEAN
  6
VOLLINIE
 62
    18
 10
-9.344627782184304
 20
9.199999999137987
 30
0.0
 11
-13.37797952169509
 21
6.871343287196412
 31
0.0
  0
LINE
  5
3B7
  8
BLATTANSICHT_1_GEOMETRIEAN
  6
VOLLINIE
 62
    18
 10
-8.594627782184304
 20
7.900961894137994
 30
0.0
 11
-9.344627782184304
 21
9.199999999137987
 31
0.0
  0
LINE
  5
3B8
  8
BLATTANSICHT_1_GEOMETRIEAN
  6
VOLLINIE
 62
    18
 10
-12.6279795214397
 20
5.572305181667201
 30
0.0
 11
-8.594627782184304
 21
7.900961894137994
 31
0.0
  0
LINE
  5
3B9
  8
BLATTANSICHT_1_GEOMETRIEAN
  6
VOLLINIE
 62
    18
 10
-12.73834417630208
 20
5.501995142157513
 30
0.0
 11
-12.6279795214397
 21
5.572305181667201
 31
0.0
  0
LINE
  5
3BA
  8
BLATTANSICHT_1_GEOMETRIEAN
  6
VOLLINIE
 62
    18
 10
-12.84216093659396
 20
5.422333740078192
 30
0.0
 11
-12.73834417630208
 21
5.501995142157513
 31
0.0
  0
LINE
  5
3BB
  8
BLATTANSICHT_1_GEOMETRIEAN
  6
VOLLINIE
 62
    18
 10
-12.93863969407808
 20
5.333927246803859
 30
0.0
 11
-12.84216093659396
 21
5.422333740078192
 31
0.0
  0
LINE
  5
3BC
  8
BLATTANSICHT_1_GEOMETRIEAN
  6
VOLLINIE
 62
    18
 10
-13.02704618719027
 20
5.237448489085759
 30
0.0
 11
-12.93863969407808
 21
5.333927246803859
 31
0.0
  0
LINE
  5
3BD
  8
BLATTANSICHT_1_GEOMETRIEAN
  6
VOLLINIE
 62
    18
 10
-13.10670758908331
 20
5.133631728571578
 30
0.0
 11
-13.02704618719027
 21
5.237448489085759
 31
0.0
  0
LINE
  5
3BE
  8
BLATTANSICHT_1_GEOMETRIEAN
  6
VOLLINIE
 62
    18
 10
-13.17701762838341
 20
5.023267073501038
 30
0.0
 11
-13.10670758908331
 21
5.133631728571578
 31
0.0
  0
LINE
  5
3BF
  8
BLATTANSICHT_1_GEOMETRIEAN
  6
VOLLINIE
 62
    18
 10
-14.1761128511414
 20
2.344904248269648
 30
0.0
 11
-13.99929986650449
 21
2.151946734771622
 31
0.0
  0
LINE
  5
3C0
  8
BLATTANSICHT_1_GEOMETRIEAN
  6
VOLLINIE
 62
    18
 10
-14.33543565368645
 20
2.552537767097276
 30
0.0
 11
-14.1761128511414
 21
2.344904248269648
 31
0.0
  0
LINE
  5
3C1
  8
BLATTANSICHT_1_GEOMETRIEAN
  6
VOLLINIE
 62
    18
 10
-14.47605573142437
 20
2.773267074821756
 30
0.0
 11
-14.33543565368645
 21
2.552537767097276
 31
0.0
  0
LINE
  5
3C2
  8
BLATTANSICHT_1_GEOMETRIEAN
  6
VOLLINIE
 62
    18
 10
-12.93863969101572
 20
3.212606903238504
 30
0.0
 11
-13.02704618415389
 21
3.30908566048329
 31
0.0
  0
LINE
  5
3C3
  8
BLATTANSICHT_1_GEOMETRIEAN
  6
VOLLINIE
 62
    18
 10
-13.02704618415389
 20
3.30908566048329
 30
0.0
 11
-13.1067075861335
 21
3.412902420513317
 31
0.0
  0
LINE
  5
3C4
  8
BLATTANSICHT_1_GEOMETRIEAN
  6
VOLLINIE
 62
    18
 10
-13.1067075861335
 20
3.412902420513317
 30
0.0
 11
-13.17701762558269
 21
3.523267075095958
 31
0.0
  0
LINE
  5
3C5
  8
BLATTANSICHT_1_GEOMETRIEAN
  6
VOLLINIE
 62
    18
 10
-13.23744120281165
 20
4.907194466449366
 30
0.0
 11
-13.17701762838341
 21
5.023267073501038
 31
0.0
  0
LINE
  5
3C6
  8
BLATTANSICHT_1_GEOMETRIEAN
  6
VOLLINIE
 62
    18
 10
-13.28751845305745
 20
4.786297289218984
 30
0.0
 11
-13.23744120281165
 21
4.907194466449366
 31
0.0
  0
LINE
  5
3C7
  8
BLATTANSICHT_1_GEOMETRIEAN
  6
VOLLINIE
 62
    18
 10
-13.32686826101195
 20
4.661495642321201
 30
0.0
 11
-13.28751845305745
 21
4.786297289218984
 31
0.0
  0
LINE
  5
3C8
  8
BLATTANSICHT_1_GEOMETRIEAN
  6
VOLLINIE
 62
    18
 10
-13.35519115087886
 20
4.533739341638846
 30
0.0
 11
-13.32686826101195
 21
4.661495642321201
 31
0.0
  0
LINE
  5
3C9
  8
BLATTANSICHT_1_GEOMETRIEAN
  6
VOLLINIE
 62
    18
 10
-13.37227156836616
 20
4.40400068975393
 30
0.0
 11
-13.35519115087886
 21
4.533739341638846
 31
0.0
  0
LINE
  5
3CA
  8
BLATTANSICHT_1_GEOMETRIEAN
  6
VOLLINIE
 62
    18
 10
-13.37797952118431
 20
4.27326707613799
 30
0.0
 11
-13.37227156836616
 21
4.40400068975393
 31
0.0
  0
LINE
  5
3CB
  8
BLATTANSICHT_1_GEOMETRIEAN
  6
VOLLINIE
 62
    18
 10
-13.37227156769619
 20
4.142533461587998
 30
0.0
 11
-13.37797952118431
 21
4.27326707613799
 31
0.0
  0
LINE
  5
3CC
  8
BLATTANSICHT_1_GEOMETRIEAN
  6
VOLLINIE
 62
    18
 10
-13.3551911500051
 20
4.012794809056453
 30
0.0
 11
-13.37227156769619
 21
4.142533461587998
 31
0.0
  0
LINE
  5
3CD
  8
BLATTANSICHT_1_GEOMETRIEAN
  6
VOLLINIE
 62
    18
 10
-13.32686825981752
 20
3.885038507761263
 30
0.0
 11
-13.3551911500051
 21
4.012794809056453
 31
0.0
  0
LINE
  5
3CE
  8
BLATTANSICHT_1_GEOMETRIEAN
  6
VOLLINIE
 62
    18
 10
-13.28751845143029
 20
3.760236860299802
 30
0.0
 11
-13.32686825981752
 21
3.885038507761263
 31
0.0
  0
LINE
  5
3CF
  8
BLATTANSICHT_1_GEOMETRIEAN
  6
VOLLINIE
 62
    18
 10
-13.23744120064629
 20
3.639339682569632
 30
0.0
 11
-13.28751845143029
 21
3.760236860299802
 31
0.0
  0
LINE
  5
3D0
  8
BLATTANSICHT_1_GEOMETRIEAN
  6
VOLLINIE
 62
    18
 10
-13.17701762558269
 20
3.523267075095958
 30
0.0
 11
-13.23744120064629
 21
3.639339682569632
 31
0.0
  0
LINE
  5
3D1
  8
BLATTANSICHT_1_GEOMETRIEAN
  6
VOLLINIE
 62
    18
 10
-9.940565443414924
 20
-0.0000000008619961
 30
0.0
 11
-6.995884796184306
 21
-0.0000000008619961
 31
0.0
  0
LINE
  5
3D2
  8
BLATTANSICHT_1_GEOMETRIEAN
  6
VOLLINIE
 62
    18
 10
-6.995884796184306
 20
-0.0000000008619961
 30
0.0
 11
-6.995884796184306
 21
1.499999999608394
 31
0.0
  0
LINE
  5
3D3
  8
BLATTANSICHT_1_GEOMETRIEAN
  6
VOLLINIE
 62
    18
 10
-6.995884796184306
 20
1.499999999608394
 30
0.0
 11
-10.07454004018431
 21
1.499999999138001
 31
0.0
  0
LINE
  5
3D4
  8
BLATTANSICHT_1_GEOMETRIEAN
  6
VOLLINIE
 62
    18
 10
-10.28786179788048
 20
0.0303844928248098
 30
0.0
 11
-10.11487692846809
 21
0.0076106028485109
 31
0.0
  0
LINE
  5
3D5
  8
BLATTANSICHT_1_GEOMETRIEAN
  6
VOLLINIE
 62
    18
 10
-10.45820353235149
 20
0.0681483460138204
 30
0.0
 11
-10.28786179788048
 21
0.0303844928248098
 31
0.0
  0
LINE
  5
3D6
  8
BLATTANSICHT_1_GEOMETRIEAN
  6
VOLLINIE
 62
    18
 10
-10.11487692846809
 20
0.0076106028485109
 30
0.0
 11
-9.940565443414924
 21
-0.0000000008619961
 31
0.0
  0
LINE
  5
3D7
  8
BLATTANSICHT_1_GEOMETRIEAN
  6
VOLLINIE
 62
    18
 10
-5.110008212831734
 20
0.0
 30
0.0
 11
-4.870884794830935
 21
0.0
 31
0.0
  0
LINE
  5
3D8
  8
BLATTANSICHT_1_GEOMETRIEAN
  6
VOLLINIE
 62
    18
 10
-4.870884794830935
 20
0.0
 30
0.0
 11
-4.619394145661308
 21
0.0
 31
0.0
  0
LINE
  5
3D9
  8
BLATTANSICHT_1_GEOMETRIEAN
  6
VOLLINIE
 62
    18
 10
-4.619394145661308
 20
0.0
 30
0.0
 11
-4.35745026101374
 21
0.0
 31
0.0
  0
LINE
  5
3DA
  8
BLATTANSICHT_1_GEOMETRIEAN
  6
VOLLINIE
 62
    18
 10
-4.087046692012756
 20
0.0
 30
0.0
 11
-3.810241373088836
 21
0.0
 31
0.0
  0
LINE
  5
3DB
  8
BLATTANSICHT_1_GEOMETRIEAN
  6
VOLLINIE
 62
    18
 10
-4.35745026101374
 20
0.0
 30
0.0
 11
-4.087046692012756
 21
0.0
 31
0.0
  0
LINE
  5
3DC
  8
BLATTANSICHT_1_GEOMETRIEAN
  6
VOLLINIE
 62
    18
 10
-3.529140959854737
 20
0.0
 30
0.0
 11
-3.245884796184313
 21
-0.0000000008619961
 31
0.0
  0
LINE
  5
3DD
  8
BLATTANSICHT_1_GEOMETRIEAN
  6
VOLLINIE
 62
    18
 10
-3.810241373088836
 20
0.0
 30
0.0
 11
-3.529140959854737
 21
0.0
 31
0.0
  0
LINE
  5
3DE
  8
BLATTANSICHT_1_GEOMETRIEAN
  6
VOLLINIE
 62
    18
 10
-5.334944526069388
 20
0.0
 30
0.0
 11
-5.110008212831734
 21
0.0
 31
0.0
  0
LINE
  5
3DF
  8
BLATTANSICHT_1_GEOMETRIEAN
  6
VOLLINIE
 62
    18
 10
-5.543981833383056
 20
0.0
 30
0.0
 11
-5.334944526069388
 21
0.0
 31
0.0
  0
LINE
  5
3E0
  8
BLATTANSICHT_1_GEOMETRIEAN
  6
VOLLINIE
 62
    18
 10
-6.081496816887713
 20
0.0
 30
0.0
 11
-5.948161032646969
 21
0.0
 31
0.0
  0
LINE
  5
3E1
  8
BLATTANSICHT_1_GEOMETRIEAN
  6
VOLLINIE
 62
    18
 10
-6.1973501098563
 20
0.0
 30
0.0
 11
-6.081496816887713
 21
0.0
 31
0.0
  0
LINE
  5
3E2
  8
BLATTANSICHT_1_GEOMETRIEAN
  6
VOLLINIE
 62
    18
 10
-6.295006637467123
 20
0.0
 30
0.0
 11
-6.1973501098563
 21
0.0
 31
0.0
  0
LINE
  5
3E3
  8
BLATTANSICHT_1_GEOMETRIEAN
  6
VOLLINIE
 62
    18
 10
-6.373864314745522
 20
0.0
 30
0.0
 11
-6.295006637467123
 21
0.0
 31
0.0
  0
LINE
  5
3E4
  8
BLATTANSICHT_1_GEOMETRIEAN
  6
VOLLINIE
 62
    18
 10
-6.433436957881904
 20
0.0
 30
0.0
 11
-6.373864314745522
 21
0.0
 31
0.0
  0
LINE
  5
3E5
  8
BLATTANSICHT_1_GEOMETRIEAN
  6
VOLLINIE
 62
    18
 10
-5.428451397213978
 20
1.499999999273303
 30
0.0
 11
-5.617943030145927
 21
1.499999999273303
 31
0.0
  0
LINE
  5
3E6
  8
BLATTANSICHT_1_GEOMETRIEAN
  6
VOLLINIE
 62
    18
 10
-5.791566728836973
 20
1.499999999273303
 30
0.0
 11
-5.948161033845071
 21
1.499999999273303
 31
0.0
  0
LINE
  5
3E7
  8
BLATTANSICHT_1_GEOMETRIEAN
  6
VOLLINIE
 62
    18
 10
-4.538567336919314
 20
1.499999999273303
 30
0.0
 11
-4.777924189151869
 21
1.499999999273303
 31
0.0
  0
LINE
  5
3E8
  8
BLATTANSICHT_1_GEOMETRIEAN
  6
VOLLINIE
 62
    18
 10
-4.290563057207541
 20
1.499999999273303
 30
0.0
 11
-4.538567336919314
 21
1.499999999273303
 31
0.0
  0
LINE
  5
3E9
  8
BLATTANSICHT_1_GEOMETRIEAN
  6
VOLLINIE
 62
    18
 10
-4.035570379944533
 20
1.499999999273303
 30
0.0
 11
-4.290563057207541
 21
1.499999999273303
 31
0.0
  0
LINE
  5
3EA
  8
BLATTANSICHT_1_GEOMETRIEAN
  6
VOLLINIE
 62
    18
 10
-3.775295084092982
 20
1.499999999273303
 30
0.0
 11
-4.035570379944533
 21
1.499999999273303
 31
0.0
  0
LINE
  5
3EB
  8
BLATTANSICHT_1_GEOMETRIEAN
  6
VOLLINIE
 62
    18
 10
-3.511478286805531
 20
1.499999999273303
 30
0.0
 11
-3.775295084092982
 21
1.499999999273303
 31
0.0
  0
LINE
  5
3EC
  8
BLATTANSICHT_1_GEOMETRIEAN
  6
VOLLINIE
 62
    18
 10
-3.245884796184313
 20
1.499999999138001
 30
0.0
 11
-3.511478286805531
 21
1.499999999273303
 31
0.0
  0
LINE
  5
3ED
  8
BLATTANSICHT_1_GEOMETRIEAN
  6
VOLLINIE
 62
    18
 10
-4.777924189151869
 20
1.499999999273303
 30
0.0
 11
-5.007032431128128
 21
1.499999999273303
 31
0.0
  0
LINE
  5
3EE
  8
BLATTANSICHT_1_GEOMETRIEAN
  6
VOLLINIE
 62
    18
 10
-5.224359438368263
 20
1.499999999273303
 30
0.0
 11
-5.428451397213978
 21
1.499999999273303
 31
0.0
  0
LINE
  5
3EF
  8
BLATTANSICHT_1_GEOMETRIEAN
  6
VOLLINIE
 62
    18
 10
-5.007032431128128
 20
1.499999999273303
 30
0.0
 11
-5.224359438368263
 21
1.499999999273303
 31
0.0
  0
LINE
  5
3F0
  8
BLATTANSICHT_1_GEOMETRIEAN
  6
VOLLINIE
 62
    18
 10
-5.617943030145927
 20
1.499999999273303
 30
0.0
 11
-5.791566728836973
 21
1.499999999273303
 31
0.0
  0
LINE
  5
3F1
  8
BLATTANSICHT_1_GEOMETRIEAN
  6
VOLLINIE
 62
    18
 10
-6.45587190265935
 20
1.499999999273303
 30
0.0
 11
-6.485866130287744
 21
1.499999999273303
 31
0.0
  0
LINE
  5
3F2
  8
BLATTANSICHT_1_GEOMETRIEAN
  6
VOLLINIE
 62
    18
 10
-6.248493276945791
 20
1.499999999273303
 30
0.0
 11
-6.336818474001004
 21
1.499999999273303
 31
0.0
  0
LINE
  5
3F3
  8
BLATTANSICHT_1_GEOMETRIEAN
  6
VOLLINIE
 62
    18
 10
-6.406087037147072
 20
1.499999999273303
 30
0.0
 11
-6.45587190265935
 21
1.499999999273303
 31
0.0
  0
LINE
  5
3F4
  8
BLATTANSICHT_1_GEOMETRIEAN
  6
VOLLINIE
 62
    18
 10
-6.336818474001004
 20
1.499999999273303
 30
0.0
 11
-6.406087037147072
 21
1.499999999273303
 31
0.0
  0
LINE
  5
3F5
  8
BLATTANSICHT_1_GEOMETRIEAN
  6
VOLLINIE
 62
    18
 10
-6.485866130287744
 20
1.499999999273303
 30
0.0
 11
-6.495884796184307
 21
1.499999999138001
 31
0.0
  0
LINE
  5
3F6
  8
BLATTANSICHT_1_GEOMETRIEAN
  6
VOLLINIE
 62
    18
 10
-6.060467357152867
 20
1.499999999273303
 30
0.0
 11
-6.160721205645454
 21
1.499999999273303
 31
0.0
  0
LINE
  5
3F7
  8
BLATTANSICHT_1_GEOMETRIEAN
  6
VOLLINIE
 62
    18
 10
-5.948161033845071
 20
1.499999999273303
 30
0.0
 11
-6.060467357152867
 21
1.499999999273303
 31
0.0
  0
LINE
  5
3F8
  8
BLATTANSICHT_1_GEOMETRIEAN
  6
VOLLINIE
 62
    18
 10
-6.160721205645454
 20
1.499999999273303
 30
0.0
 11
-6.248493276945791
 21
1.499999999273303
 31
0.0
  0
LINE
  5
3F9
  8
BLATTANSICHT_1_GEOMETRIEAN
  6
VOLLINIE
 62
    18
 10
-5.948161032646969
 20
0.0
 30
0.0
 11
-5.824283149083375
 21
0.0
 31
0.0
  0
LINE
  5
3FA
  8
BLATTANSICHT_1_GEOMETRIEAN
  6
VOLLINIE
 62
    18
 10
-5.824283149083375
 20
0.0
 30
0.0
 11
-5.689364168067857
 21
0.0
 31
0.0
  0
LINE
  5
3FB
  8
BLATTANSICHT_1_GEOMETRIEAN
  6
VOLLINIE
 62
    18
 10
-5.689364168067857
 20
0.0
 30
0.0
 11
-5.543981833383056
 21
0.0
 31
0.0
  0
LINE
  5
3FC
  8
BLATTANSICHT_1_GEOMETRIEAN
  6
VOLLINIE
 62
    18
 10
-6.495884796184307
 20
1.499999999138001
 30
0.0
 11
-6.495884796184307
 21
-0.0000000008619961
 31
0.0
  0
LINE
  5
3FD
  8
BLATTANSICHT_1_GEOMETRIEAN
  6
VOLLINIE
 62
    18
 10
-6.495884796184307
 20
-0.0000000008619961
 30
0.0
 11
-6.488926296718061
 21
0.0
 31
0.0
  0
LINE
  5
3FE
  8
BLATTANSICHT_1_GEOMETRIEAN
  6
VOLLINIE
 62
    18
 10
-6.468080595786961
 20
0.0
 30
0.0
 11
-6.433436957881904
 21
0.0
 31
0.0
  0
LINE
  5
3FF
  8
BLATTANSICHT_1_GEOMETRIEAN
  6
VOLLINIE
 62
    18
 10
-6.488926296718061
 20
0.0
 30
0.0
 11
-6.468080595786961
 21
0.0
 31
0.0
  0
LINE
  5
400
  8
BLATTANSICHT_1_GEOMETRIEAN
  6
VOLLINIE
 62
    18
 10
-3.127979518184315
 20
1.499999999138001
 30
0.0
 11
-3.245884796184313
 21
1.499999999138001
 31
0.0
  0
LINE
  5
401
  8
BLATTANSICHT_1_GEOMETRIEAN
  6
VOLLINIE
 62
    18
 10
-3.127979518184315
 20
-0.0000000008619961
 30
0.0
 11
-3.127979518184315
 21
1.499999999138001
 31
0.0
  0
LINE
  5
402
  8
BLATTANSICHT_1_GEOMETRIEAN
  6
VOLLINIE
 62
    18
 10
-3.245884796184313
 20
1.499999999138001
 30
0.0
 11
-3.245884796184313
 21
-0.0000000008619961
 31
0.0
  0
LINE
  5
403
  8
BLATTANSICHT_1_GEOMETRIEAN
  6
VOLLINIE
 62
    18
 10
-3.245884796184313
 20
-0.0000000008619961
 30
0.0
 11
-3.127979518184315
 21
-0.0000000008619961
 31
0.0
  0
LINE
  5
404
  8
BLATTANSICHT_1_GEOMETRIEAN
  6
VOLLINIE
 62
    18
 10
77.03458225491141
 20
-0.0000000008619961
 30
0.0
 11
77.05344974053885
 21
-0.0000000008619961
 31
0.0
  0
LINE
  5
405
  8
BLATTANSICHT_1_GEOMETRIEAN
  6
VOLLINIE
 62
    18
 10
76.96045064569265
 20
-0.0000000008619961
 30
0.0
 11
77.03458225491141
 21
-0.0000000008619961
 31
0.0
  0
LINE
  5
406
  8
BLATTANSICHT_1_GEOMETRIEAN
  6
VOLLINIE
 62
    18
 10
76.88819623703641
 20
-0.0000000008619961
 30
0.0
 11
76.96045064569265
 21
-0.0000000008619961
 31
0.0
  0
LINE
  5
407
  8
BLATTANSICHT_1_GEOMETRIEAN
  6
VOLLINIE
 62
    18
 10
76.81781902894265
 20
-0.0000000008619961
 30
0.0
 11
76.88819623703641
 21
-0.0000000008619961
 31
0.0
  0
LINE
  5
408
  8
BLATTANSICHT_1_GEOMETRIEAN
  6
VOLLINIE
 62
    18
 10
76.7493190214114
 20
-0.0000000008619961
 30
0.0
 11
76.81781902894265
 21
-0.0000000008619961
 31
0.0
  0
LINE
  5
409
  8
BLATTANSICHT_1_GEOMETRIEAN
  6
VOLLINIE
 62
    18
 10
76.68302076853641
 20
-0.0000000008619961
 30
0.0
 11
76.7493190214114
 21
-0.0000000008619961
 31
0.0
  0
LINE
  5
40A
  8
BLATTANSICHT_1_GEOMETRIEAN
  6
VOLLINIE
 62
    18
 10
76.6192488009114
 20
-0.0000000008619961
 30
0.0
 11
76.68302076853641
 21
-0.0000000008619961
 31
0.0
  0
LINE
  5
40B
  8
BLATTANSICHT_1_GEOMETRIEAN
  6
VOLLINIE
 62
    18
 10
76.5580031185364
 20
-0.0000000008619961
 30
0.0
 11
76.6192488009114
 21
-0.0000000008619961
 31
0.0
  0
LINE
  5
40C
  8
BLATTANSICHT_1_GEOMETRIEAN
  6
VOLLINIE
 62
    18
 10
76.4992837214114
 20
-0.0000000008619961
 30
0.0
 11
76.5580031185364
 21
-0.0000000008619961
 31
0.0
  0
LINE
  5
40D
  8
BLATTANSICHT_1_GEOMETRIEAN
  6
VOLLINIE
 62
    18
 10
76.44336661409889
 20
-0.0000000008619961
 30
0.0
 11
76.4992837214114
 21
-0.0000000008619961
 31
0.0
  0
LINE
  5
40E
  8
BLATTANSICHT_1_GEOMETRIEAN
  6
VOLLINIE
 62
    18
 10
76.3905278011614
 20
-0.0000000008619961
 30
0.0
 11
76.44336661409889
 21
-0.0000000008619961
 31
0.0
  0
LINE
  5
40F
  8
BLATTANSICHT_1_GEOMETRIEAN
  6
VOLLINIE
 62
    18
 10
76.34076728259889
 20
-0.0000000008619961
 30
0.0
 11
76.3905278011614
 21
-0.0000000008619961
 31
0.0
  0
LINE
  5
410
  8
BLATTANSICHT_1_GEOMETRIEAN
  6
VOLLINIE
 62
    18
 10
76.2940850584114
 20
-0.0000000008619961
 30
0.0
 11
76.34076728259889
 21
-0.0000000008619961
 31
0.0
  0
LINE
  5
411
  8
BLATTANSICHT_1_GEOMETRIEAN
  6
VOLLINIE
 62
    18
 10
76.2506979689739
 20
-0.0000000008619961
 30
0.0
 11
76.2940850584114
 21
-0.0000000008619961
 31
0.0
  0
LINE
  5
412
  8
BLATTANSICHT_1_GEOMETRIEAN
  6
VOLLINIE
 62
    18
 10
76.21082287816141
 20
-0.0000000008619961
 30
0.0
 11
76.2506979689739
 21
-0.0000000008619961
 31
0.0
  0
LINE
  5
413
  8
BLATTANSICHT_1_GEOMETRIEAN
  6
VOLLINIE
 62
    18
 10
76.17445978597392
 20
-0.0000000008619961
 30
0.0
 11
76.21082287816141
 21
-0.0000000008619961
 31
0.0
  0
LINE
  5
414
  8
BLATTANSICHT_1_GEOMETRIEAN
  6
VOLLINIE
 62
    18
 10
76.1416086924114
 20
-0.0000000008620074
 30
0.0
 11
76.17445978597392
 21
-0.0000000008619961
 31
0.0
  0
LINE
  5
415
  8
BLATTANSICHT_1_GEOMETRIEAN
  6
VOLLINIE
 62
    18
 10
76.03384357769265
 20
-0.0000000008619961
 30
0.0
 11
76.0477142074114
 21
-0.0000000008619961
 31
0.0
  0
LINE
  5
416
  8
BLATTANSICHT_1_GEOMETRIEAN
  6
VOLLINIE
 62
    18
 10
76.02393598503639
 20
-0.0000000008620074
 30
0.0
 11
76.03384357769265
 21
-0.0000000008619961
 31
0.0
  0
LINE
  5
417
  8
BLATTANSICHT_1_GEOMETRIEAN
  6
VOLLINIE
 62
    18
 10
76.01799142944266
 20
-0.0000000008619961
 30
0.0
 11
76.02393598503639
 21
-0.0000000008620074
 31
0.0
  0
LINE
  5
418
  8
BLATTANSICHT_1_GEOMETRIEAN
  6
VOLLINIE
 62
    18
 10
76.0160099104114
 20
-0.0000000008619961
 30
0.0
 11
76.01799142944266
 21
-0.0000000008619961
 31
0.0
  0
LINE
  5
419
  8
BLATTANSICHT_1_GEOMETRIEAN
  6
VOLLINIE
 62
    18
 10
76.1124189575989
 20
-0.0000000008619961
 30
0.0
 11
76.1416086924114
 21
-0.0000000008620074
 31
0.0
  0
LINE
  5
41A
  8
BLATTANSICHT_1_GEOMETRIEAN
  6
VOLLINIE
 62
    18
 10
76.0870399651614
 20
-0.0000000008619961
 30
0.0
 11
76.1124189575989
 21
-0.0000000008619961
 31
0.0
  0
LINE
  5
41B
  8
BLATTANSICHT_1_GEOMETRIEAN
  6
VOLLINIE
 62
    18
 10
76.0654717150989
 20
-0.0000000008619961
 30
0.0
 11
76.0870399651614
 21
-0.0000000008619961
 31
0.0
  0
LINE
  5
41C
  8
BLATTANSICHT_1_GEOMETRIEAN
  6
VOLLINIE
 62
    18
 10
76.0477142074114
 20
-0.0000000008619961
 30
0.0
 11
76.0654717150989
 21
-0.0000000008619961
 31
0.0
  0
LINE
  5
41D
  8
BLATTANSICHT_1_GEOMETRIEAN
  6
VOLLINIE
 62
    18
 10
92.27223229678417
 20
1.499999999273292
 30
0.0
 11
92.24771419716208
 21
1.499999999273292
 31
0.0
  0
LINE
  5
41E
  8
BLATTANSICHT_1_GEOMETRIEAN
  6
VOLLINIE
 62
    18
 10
92.30357519709142
 20
1.499999999273292
 30
0.0
 11
92.27223229678417
 21
1.499999999273292
 31
0.0
  0
LINE
  5
41F
  8
BLATTANSICHT_1_GEOMETRIEAN
  6
VOLLINIE
 62
    18
 10
92.3416086829677
 20
1.499999999273292
 30
0.0
 11
92.30357519709142
 21
1.499999999273292
 31
0.0
  0
LINE
  5
420
  8
BLATTANSICHT_1_GEOMETRIEAN
  6
VOLLINIE
 62
    18
 10
92.386169888
 20
1.499999999273292
 30
0.0
 11
92.3416086829677
 21
1.499999999273292
 31
0.0
  0
LINE
  5
421
  8
BLATTANSICHT_1_GEOMETRIEAN
  6
VOLLINIE
 62
    18
 10
92.43706799512775
 20
1.499999999273292
 30
0.0
 11
92.386169888
 21
1.499999999273292
 31
0.0
  0
LINE
  5
422
  8
BLATTANSICHT_1_GEOMETRIEAN
  6
VOLLINIE
 62
    18
 10
92.49408505084466
 20
1.499999999273292
 30
0.0
 11
92.43706799512775
 21
1.499999999273292
 31
0.0
  0
LINE
  5
423
  8
BLATTANSICHT_1_GEOMETRIEAN
  6
VOLLINIE
 62
    18
 10
92.55697689889574
 20
1.499999999273292
 30
0.0
 11
92.49408505084466
 21
1.499999999273292
 31
0.0
  0
LINE
  5
424
  8
BLATTANSICHT_1_GEOMETRIEAN
  6
VOLLINIE
 62
    18
 10
92.62547422712657
 20
1.499999999273292
 30
0.0
 11
92.55697689889574
 21
1.499999999273292
 31
0.0
  0
LINE
  5
425
  8
BLATTANSICHT_1_GEOMETRIEAN
  6
VOLLINIE
 62
    18
 10
92.69928371946914
 20
1.499999999273292
 30
0.0
 11
92.62547422712657
 21
1.499999999273292
 31
0.0
  0
LINE
  5
426
  8
BLATTANSICHT_1_GEOMETRIEAN
  6
VOLLINIE
 62
    18
 10
92.7780893126928
 20
1.499999999273292
 30
0.0
 11
92.69928371946914
 21
1.499999999273292
 31
0.0
  0
LINE
  5
427
  8
BLATTANSICHT_1_GEOMETRIEAN
  6
VOLLINIE
 62
    18
 10
92.86155354885737
 20
1.499999999273292
 30
0.0
 11
92.7780893126928
 21
1.499999999273292
 31
0.0
  0
LINE
  5
428
  8
BLATTANSICHT_1_GEOMETRIEAN
  6
VOLLINIE
 62
    18
 10
92.94931902129606
 20
1.499999999273292
 30
0.0
 11
92.86155354885737
 21
1.499999999273292
 31
0.0
  0
LINE
  5
429
  8
BLATTANSICHT_1_GEOMETRIEAN
  6
VOLLINIE
 62
    18
 10
93.06787374235147
 20
1.499999999273292
 30
0.0
 11
92.94931902129606
 21
1.499999999273292
 31
0.0
  0
LINE
  5
42A
  8
BLATTANSICHT_1_GEOMETRIEAN
  6
VOLLINIE
 62
    18
 10
93.19207688250879
 20
1.499999999273292
 30
0.0
 11
93.06787374235147
 21
1.499999999273292
 31
0.0
  0
LINE
  5
42B
  8
BLATTANSICHT_1_GEOMETRIEAN
  6
VOLLINIE
 62
    18
 10
93.32104945467607
 20
1.499999999273292
 30
0.0
 11
93.19207688250879
 21
1.499999999273292
 31
0.0
  0
LINE
  5
42C
  8
BLATTANSICHT_1_GEOMETRIEAN
  6
VOLLINIE
 62
    18
 10
93.45387871843464
 20
1.499999999273292
 30
0.0
 11
93.32104945467607
 21
1.499999999273292
 31
0.0
  0
LINE
  5
42D
  8
BLATTANSICHT_1_GEOMETRIEAN
  6
VOLLINIE
 62
    18
 10
93.58962463951373
 20
1.499999999273292
 30
0.0
 11
93.45387871843464
 21
1.499999999273292
 31
0.0
  0
LINE
  5
42E
  8
BLATTANSICHT_1_GEOMETRIEAN
  6
VOLLINIE
 62
    18
 10
93.72732654242432
 20
1.499999999273292
 30
0.0
 11
93.58962463951373
 21
1.499999999273292
 31
0.0
  0
LINE
  5
42F
  8
BLATTANSICHT_1_GEOMETRIEAN
  6
VOLLINIE
 62
    18
 10
93.86600990917076
 20
1.499999999273292
 30
0.0
 11
93.72732654242432
 21
1.499999999273292
 31
0.0
  0
LINE
  5
430
  8
BLATTANSICHT_1_GEOMETRIEAN
  6
VOLLINIE
 62
    18
 10
94.00469327592624
 20
1.499999999273292
 30
0.0
 11
93.86600990917076
 21
1.499999999273292
 31
0.0
  0
LINE
  5
431
  8
BLATTANSICHT_1_GEOMETRIEAN
  6
VOLLINIE
 62
    18
 10
94.14239517886392
 20
1.499999999273292
 30
0.0
 11
94.00469327592624
 21
1.499999999273292
 31
0.0
  0
LINE
  5
432
  8
BLATTANSICHT_1_GEOMETRIEAN
  6
VOLLINIE
 62
    18
 10
94.26600991041138
 20
1.499999999273292
 30
0.0
 11
94.14239517886392
 21
1.499999999273292
 31
0.0
  0
LINE
  5
433
  8
BLATTANSICHT_1_GEOMETRIEAN
  6
VOLLINIE
 62
    18
 10
95.4597875239113
 20
1.499999999273303
 30
0.0
 11
95.42844462349252
 21
1.499999999273303
 31
0.0
  0
LINE
  5
434
  8
BLATTANSICHT_1_GEOMETRIEAN
  6
VOLLINIE
 62
    18
 10
95.51247713384635
 20
1.499999999273303
 30
0.0
 11
95.50189393193853
 21
1.499999999273303
 31
0.0
  0
LINE
  5
435
  8
BLATTANSICHT_1_GEOMETRIEAN
  6
VOLLINIE
 62
    18
 10
92.24771419716208
 20
1.499999999273292
 30
0.0
 11
92.23012588888045
 21
1.499999999273292
 31
0.0
  0
LINE
  5
436
  8
BLATTANSICHT_1_GEOMETRIEAN
  6
VOLLINIE
 62
    18
 10
92.23012588888045
 20
1.499999999273292
 30
0.0
 11
92.21954268701172
 21
1.499999999273292
 31
0.0
  0
LINE
  5
437
  8
BLATTANSICHT_1_GEOMETRIEAN
  6
VOLLINIE
 62
    18
 10
74.32050960360898
 20
0.0
 30
0.0
 11
74.45142734938666
 21
0.0
 31
0.0
  0
LINE
  5
438
  8
BLATTANSICHT_1_GEOMETRIEAN
  6
VOLLINIE
 62
    18
 10
74.45142734938666
 20
0.0
 30
0.0
 11
74.60376576795143
 21
0.0
 31
0.0
  0
LINE
  5
439
  8
BLATTANSICHT_1_GEOMETRIEAN
  6
VOLLINIE
 62
    18
 10
74.60376576795143
 20
0.0
 30
0.0
 11
74.77636547195321
 21
0.0
 31
0.0
  0
LINE
  5
43A
  8
BLATTANSICHT_1_GEOMETRIEAN
  6
VOLLINIE
 62
    18
 10
74.77636547195321
 20
0.0
 30
0.0
 11
74.96791287342566
 21
0.0
 31
0.0
  0
LINE
  5
43B
  8
BLATTANSICHT_1_GEOMETRIEAN
  6
VOLLINIE
 62
    18
 10
74.21200889371435
 20
0.0
 30
0.0
 11
74.32050960360898
 21
0.0
 31
0.0
  0
LINE
  5
43C
  8
BLATTANSICHT_1_GEOMETRIEAN
  6
VOLLINIE
 62
    18
 10
74.12675097561977
 20
0.0
 30
0.0
 11
74.21200889371435
 21
0.0
 31
0.0
  0
LINE
  5
43D
  8
BLATTANSICHT_1_GEOMETRIEAN
  6
VOLLINIE
 62
    18
 10
74.01600991041141
 20
-0.0000000008619961
 30
0.0
 11
74.02837714185027
 21
0.0
 31
0.0
  0
LINE
  5
43E
  8
BLATTANSICHT_1_GEOMETRIEAN
  6
VOLLINIE
 62
    18
 10
74.06538471356231
 20
0.0
 30
0.0
 11
74.12675097561977
 21
0.0
 31
0.0
  0
LINE
  5
43F
  8
BLATTANSICHT_1_GEOMETRIEAN
  6
VOLLINIE
 62
    18
 10
74.02837714185027
 20
0.0
 30
0.0
 11
74.06538471356231
 21
0.0
 31
0.0
  0
LINE
  5
440
  8
BLATTANSICHT_1_GEOMETRIEAN
  6
VOLLINIE
 62
    18
 10
74.11902346439726
 20
1.499999999273303
 30
0.0
 11
74.06192910081617
 21
1.499999999273303
 31
0.0
  0
LINE
  5
441
  8
BLATTANSICHT_1_GEOMETRIEAN
  6
VOLLINIE
 62
    18
 10
74.06192910081617
 20
1.499999999273303
 30
0.0
 11
74.02751005486813
 21
1.499999999273303
 31
0.0
  0
LINE
  5
442
  8
BLATTANSICHT_1_GEOMETRIEAN
  6
VOLLINIE
 62
    18
 10
74.42153379120596
 20
1.499999999273303
 30
0.0
 11
74.29946430055364
 21
1.499999999273303
 31
0.0
  0
LINE
  5
443
  8
BLATTANSICHT_1_GEOMETRIEAN
  6
VOLLINIE
 62
    18
 10
74.56373367286143
 20
1.499999999273303
 30
0.0
 11
74.42153379120596
 21
1.499999999273303
 31
0.0
  0
LINE
  5
444
  8
BLATTANSICHT_1_GEOMETRIEAN
  6
VOLLINIE
 62
    18
 10
74.19838908812775
 20
1.499999999273303
 30
0.0
 11
74.11902346439726
 21
1.499999999273303
 31
0.0
  0
LINE
  5
445
  8
BLATTANSICHT_1_GEOMETRIEAN
  6
VOLLINIE
 62
    18
 10
74.29946430055364
 20
1.499999999273303
 30
0.0
 11
74.19838908812775
 21
1.499999999273303
 31
0.0
  0
LINE
  5
446
  8
BLATTANSICHT_1_GEOMETRIEAN
  6
VOLLINIE
 62
    18
 10
74.02751005486813
 20
1.499999999273303
 30
0.0
 11
74.01600991041141
 21
1.499999999138001
 31
0.0
  0
LINE
  5
447
  8
BLATTANSICHT_1_GEOMETRIEAN
  6
VOLLINIE
 62
    18
 10
74.6876115571206
 20
1.499999999273303
 30
0.0
 11
74.56373367286143
 21
1.499999999273303
 31
0.0
  0
LINE
  5
448
  8
BLATTANSICHT_1_GEOMETRIEAN
  6
VOLLINIE
 62
    18
 10
74.82253053897247
 20
1.499999999273303
 30
0.0
 11
74.6876115571206
 21
1.499999999273303
 31
0.0
  0
LINE
  5
449
  8
BLATTANSICHT_1_GEOMETRIEAN
  6
VOLLINIE
 62
    18
 10
74.96791287462361
 20
1.499999999273303
 30
0.0
 11
74.82253053897247
 21
1.499999999273303
 31
0.0
  0
LINE
  5
44A
  8
BLATTANSICHT_1_GEOMETRIEAN
  6
VOLLINIE
 62
    18
 10
75.1231360131254
 20
1.499999999273303
 30
0.0
 11
74.96791287462361
 21
1.499999999273303
 31
0.0
  0
LINE
  5
44B
  8
BLATTANSICHT_1_GEOMETRIEAN
  6
VOLLINIE
 62
    18
 10
75.2875352664679
 20
1.499999999273303
 30
0.0
 11
75.1231360131254
 21
1.499999999273303
 31
0.0
  0
LINE
  5
44C
  8
BLATTANSICHT_1_GEOMETRIEAN
  6
VOLLINIE
 62
    18
 10
75.46040665182214
 20
1.499999999273303
 30
0.0
 11
75.2875352664679
 21
1.499999999273303
 31
0.0
  0
LINE
  5
44D
  8
BLATTANSICHT_1_GEOMETRIEAN
  6
VOLLINIE
 62
    18
 10
75.67799087504163
 20
1.499999999273303
 30
0.0
 11
75.46040665182214
 21
1.499999999273303
 31
0.0
  0
LINE
  5
44E
  8
BLATTANSICHT_1_GEOMETRIEAN
  6
VOLLINIE
 62
    18
 10
75.90536576375878
 20
1.499999999273303
 30
0.0
 11
75.67799087504163
 21
1.499999999273303
 31
0.0
  0
LINE
  5
44F
  8
BLATTANSICHT_1_GEOMETRIEAN
  6
VOLLINIE
 62
    18
 10
76.63196636705416
 20
1.499999999273303
 30
0.0
 11
76.38382845056074
 21
1.499999999273303
 31
0.0
  0
LINE
  5
450
  8
BLATTANSICHT_1_GEOMETRIEAN
  6
VOLLINIE
 62
    18
 10
76.14112947616425
 20
1.499999999273303
 30
0.0
 11
75.90536576375878
 21
1.499999999273303
 31
0.0
  0
LINE
  5
451
  8
BLATTANSICHT_1_GEOMETRIEAN
  6
VOLLINIE
 62
    18
 10
76.38382845056074
 20
1.499999999273303
 30
0.0
 11
76.14112947616425
 21
1.499999999273303
 31
0.0
  0
LINE
  5
452
  8
BLATTANSICHT_1_GEOMETRIEAN
  6
VOLLINIE
 62
    18
 10
76.84179978743573
 20
1.499999999273303
 30
0.0
 11
76.63196636705416
 21
1.499999999273303
 31
0.0
  0
LINE
  5
453
  8
BLATTANSICHT_1_GEOMETRIEAN
  6
VOLLINIE
 62
    18
 10
77.05344974066473
 20
1.499999999273303
 30
0.0
 11
76.84179978743573
 21
1.499999999273303
 31
0.0
  0
LINE
  5
454
  8
BLATTANSICHT_1_GEOMETRIEAN
  6
VOLLINIE
 62
    18
 10
77.26600991041141
 20
1.499999999138001
 30
0.0
 11
77.05344974066473
 21
1.499999999273303
 31
0.0
  0
LINE
  5
455
  8
BLATTANSICHT_1_GEOMETRIEAN
  6
VOLLINIE
 62
    18
 10
76.6319663672535
 20
0.0
 30
0.0
 11
76.8417997875705
 21
0.0
 31
0.0
  0
LINE
  5
456
  8
BLATTANSICHT_1_GEOMETRIEAN
  6
VOLLINIE
 62
    18
 10
76.8417997875705
 20
0.0
 30
0.0
 11
77.05344974073274
 21
0.0
 31
0.0
  0
LINE
  5
457
  8
BLATTANSICHT_1_GEOMETRIEAN
  6
VOLLINIE
 62
    18
 10
77.05344974073274
 20
0.0
 30
0.0
 11
77.26600991041141
 21
-0.0000000008619961
 31
0.0
  0
LINE
  5
458
  8
BLATTANSICHT_1_GEOMETRIEAN
  6
VOLLINIE
 62
    18
 10
76.38382845055473
 20
0.0
 30
0.0
 11
76.6319663672535
 21
0.0
 31
0.0
  0
LINE
  5
459
  8
BLATTANSICHT_1_GEOMETRIEAN
  6
VOLLINIE
 62
    18
 10
76.1411294759612
 20
0.0
 30
0.0
 11
76.38382845055473
 21
0.0
 31
0.0
  0
LINE
  5
45A
  8
BLATTANSICHT_1_GEOMETRIEAN
  6
VOLLINIE
 62
    18
 10
75.9053657633706
 20
0.0
 30
0.0
 11
76.1411294759612
 21
0.0
 31
0.0
  0
LINE
  5
45B
  8
BLATTANSICHT_1_GEOMETRIEAN
  6
VOLLINIE
 62
    18
 10
75.67799087448375
 20
0.0
 30
0.0
 11
75.9053657633706
 21
0.0
 31
0.0
  0
LINE
  5
45C
  8
BLATTANSICHT_1_GEOMETRIEAN
  6
VOLLINIE
 62
    18
 10
75.46040665111332
 20
0.0
 30
0.0
 11
75.67799087448375
 21
0.0
 31
0.0
  0
LINE
  5
45D
  8
BLATTANSICHT_1_GEOMETRIEAN
  6
VOLLINIE
 62
    18
 10
75.28753526556997
 20
0.0
 30
0.0
 11
75.46040665111332
 21
0.0
 31
0.0
  0
LINE
  5
45E
  8
BLATTANSICHT_1_GEOMETRIEAN
  6
VOLLINIE
 62
    18
 10
75.12313601206358
 20
0.0
 30
0.0
 11
75.28753526556997
 21
0.0
 31
0.0
  0
LINE
  5
45F
  8
BLATTANSICHT_1_GEOMETRIEAN
  6
VOLLINIE
 62
    18
 10
74.96791287342566
 20
0.0
 30
0.0
 11
75.12313601206358
 21
0.0
 31
0.0
  0
LINE
  5
460
  8
BLATTANSICHT_1_GEOMETRIEAN
  6
VOLLINIE
 62
    18
 10
74.01600991041141
 20
1.499999999138001
 30
0.0
 11
74.01600991041141
 21
-0.0000000008619961
 31
0.0
  0
LINE
  5
461
  8
BLATTANSICHT_1_GEOMETRIEAN
  6
VOLLINIE
 62
    18
 10
96.9282540524461
 20
0.0
 30
0.0
 11
97.0805924709707
 21
0.0
 31
0.0
  0
LINE
  5
462
  8
BLATTANSICHT_1_GEOMETRIEAN
  6
VOLLINIE
 62
    18
 10
97.0805924709707
 20
0.0
 30
0.0
 11
97.2115102167022
 21
0.0
 31
0.0
  0
LINE
  5
463
  8
BLATTANSICHT_1_GEOMETRIEAN
  6
VOLLINIE
 62
    18
 10
97.2115102167022
 20
0.0
 30
0.0
 11
97.32001092654487
 21
0.0
 31
0.0
  0
LINE
  5
464
  8
BLATTANSICHT_1_GEOMETRIEAN
  6
VOLLINIE
 62
    18
 10
97.40526884458193
 20
0.0
 30
0.0
 11
97.4666351065767
 21
0.0
 31
0.0
  0
LINE
  5
465
  8
BLATTANSICHT_1_GEOMETRIEAN
  6
VOLLINIE
 62
    18
 10
97.32001092654487
 20
0.0
 30
0.0
 11
97.40526884458193
 21
0.0
 31
0.0
  0
LINE
  5
466
  8
BLATTANSICHT_1_GEOMETRIEAN
  6
VOLLINIE
 62
    18
 10
97.50364267822121
 20
0.0
 30
0.0
 11
97.51600991041138
 21
-0.0000000008619961
 31
0.0
  0
LINE
  5
467
  8
BLATTANSICHT_1_GEOMETRIEAN
  6
VOLLINIE
 62
    18
 10
97.4666351065767
 20
0.0
 30
0.0
 11
97.50364267822121
 21
0.0
 31
0.0
  0
LINE
  5
468
  8
BLATTANSICHT_1_GEOMETRIEAN
  6
VOLLINIE
 62
    18
 10
96.75565434847836
 20
0.0
 30
0.0
 11
96.9282540524461
 21
0.0
 31
0.0
  0
LINE
  5
469
  8
BLATTANSICHT_1_GEOMETRIEAN
  6
VOLLINIE
 62
    18
 10
96.56410694703372
 20
0.0
 30
0.0
 11
96.75565434847836
 21
0.0
 31
0.0
  0
LINE
  5
46A
  8
BLATTANSICHT_1_GEOMETRIEAN
  6
VOLLINIE
 62
    18
 10
95.14819137022303
 20
0.0
 30
0.0
 11
95.3908903447804
 21
0.0
 31
0.0
  0
LINE
  5
46B
  8
BLATTANSICHT_1_GEOMETRIEAN
  6
VOLLINIE
 62
    18
 10
95.62665405733125
 20
0.0
 30
0.0
 11
95.85402894617515
 21
0.0
 31
0.0
  0
LINE
  5
46C
  8
BLATTANSICHT_1_GEOMETRIEAN
  6
VOLLINIE
 62
    18
 10
95.3908903447804
 20
0.0
 30
0.0
 11
95.62665405733125
 21
0.0
 31
0.0
  0
LINE
  5
46D
  8
BLATTANSICHT_1_GEOMETRIEAN
  6
VOLLINIE
 62
    18
 10
95.85402894617515
 20
0.0
 30
0.0
 11
96.0716131694999
 21
0.0
 31
0.0
  0
LINE
  5
46E
  8
BLATTANSICHT_1_GEOMETRIEAN
  6
VOLLINIE
 62
    18
 10
94.9000534535564
 20
0.0
 30
0.0
 11
95.14819137022303
 21
0.0
 31
0.0
  0
LINE
  5
46F
  8
BLATTANSICHT_1_GEOMETRIEAN
  6
VOLLINIE
 62
    18
 10
94.69022003294808
 20
1.499999999273292
 30
0.0
 11
94.47857007931471
 21
1.499999999273292
 31
0.0
  0
LINE
  5
470
  8
BLATTANSICHT_1_GEOMETRIEAN
  6
VOLLINIE
 62
    18
 10
94.9000534537262
 20
1.499999999273292
 30
0.0
 11
94.69022003294808
 21
1.499999999273292
 31
0.0
  0
LINE
  5
471
  8
BLATTANSICHT_1_GEOMETRIEAN
  6
VOLLINIE
 62
    18
 10
94.47857007931471
 20
1.499999999273292
 30
0.0
 11
94.26600991041138
 21
1.499999999138001
 31
0.0
  0
LINE
  5
472
  8
BLATTANSICHT_1_GEOMETRIEAN
  6
VOLLINIE
 62
    18
 10
95.14819137018384
 20
1.499999999273292
 30
0.0
 11
94.9000534537262
 21
1.499999999273292
 31
0.0
  0
LINE
  5
473
  8
BLATTANSICHT_1_GEOMETRIEAN
  6
VOLLINIE
 62
    18
 10
95.39089034454221
 20
1.499999999273292
 30
0.0
 11
95.14819137018384
 21
1.499999999273292
 31
0.0
  0
LINE
  5
474
  8
BLATTANSICHT_1_GEOMETRIEAN
  6
VOLLINIE
 62
    18
 10
95.62665405690785
 20
1.499999999273292
 30
0.0
 11
95.39089034454221
 21
1.499999999273292
 31
0.0
  0
LINE
  5
475
  8
BLATTANSICHT_1_GEOMETRIEAN
  6
VOLLINIE
 62
    18
 10
95.8540289455839
 20
1.499999999273303
 30
0.0
 11
95.62665405690785
 21
1.499999999273292
 31
0.0
  0
LINE
  5
476
  8
BLATTANSICHT_1_GEOMETRIEAN
  6
VOLLINIE
 62
    18
 10
96.07161316876162
 20
1.499999999273292
 30
0.0
 11
95.8540289455839
 21
1.499999999273303
 31
0.0
  0
LINE
  5
477
  8
BLATTANSICHT_1_GEOMETRIEAN
  6
VOLLINIE
 62
    18
 10
96.24448455407334
 20
1.499999999273303
 30
0.0
 11
96.07161316876162
 21
1.499999999273292
 31
0.0
  0
LINE
  5
478
  8
BLATTANSICHT_1_GEOMETRIEAN
  6
VOLLINIE
 62
    18
 10
96.40888380737428
 20
1.499999999273303
 30
0.0
 11
96.24448455407334
 21
1.499999999273303
 31
0.0
  0
LINE
  5
479
  8
BLATTANSICHT_1_GEOMETRIEAN
  6
VOLLINIE
 62
    18
 10
96.56410694583587
 20
1.499999999273292
 30
0.0
 11
96.40888380737428
 21
1.499999999273303
 31
0.0
  0
LINE
  5
47A
  8
BLATTANSICHT_1_GEOMETRIEAN
  6
VOLLINIE
 62
    18
 10
97.23255551979389
 20
1.499999999273303
 30
0.0
 11
97.11048602914367
 21
1.499999999273303
 31
0.0
  0
LINE
  5
47B
  8
BLATTANSICHT_1_GEOMETRIEAN
  6
VOLLINIE
 62
    18
 10
97.33363073220818
 20
1.499999999273303
 30
0.0
 11
97.23255551979389
 21
1.499999999273303
 31
0.0
  0
LINE
  5
47C
  8
BLATTANSICHT_1_GEOMETRIEAN
  6
VOLLINIE
 62
    18
 10
97.41299635591737
 20
1.499999999273303
 30
0.0
 11
97.33363073220818
 21
1.499999999273303
 31
0.0
  0
LINE
  5
47D
  8
BLATTANSICHT_1_GEOMETRIEAN
  6
VOLLINIE
 62
    18
 10
97.4700907194674
 20
1.499999999273303
 30
0.0
 11
97.41299635591737
 21
1.499999999273303
 31
0.0
  0
LINE
  5
47E
  8
BLATTANSICHT_1_GEOMETRIEAN
  6
VOLLINIE
 62
    18
 10
97.50450976537468
 20
1.499999999273303
 30
0.0
 11
97.4700907194674
 21
1.499999999273303
 31
0.0
  0
LINE
  5
47F
  8
BLATTANSICHT_1_GEOMETRIEAN
  6
VOLLINIE
 62
    18
 10
97.51600991041138
 20
1.499999999138001
 30
0.0
 11
97.50450976537468
 21
1.499999999273303
 31
0.0
  0
LINE
  5
480
  8
BLATTANSICHT_1_GEOMETRIEAN
  6
VOLLINIE
 62
    18
 10
97.11048602914367
 20
1.499999999273303
 30
0.0
 11
96.96828614748114
 21
1.499999999273292
 31
0.0
  0
LINE
  5
481
  8
BLATTANSICHT_1_GEOMETRIEAN
  6
VOLLINIE
 62
    18
 10
97.51600991041138
 20
-0.0000000008619961
 30
0.0
 11
97.51600991041138
 21
1.499999999138001
 31
0.0
  0
LINE
  5
482
  8
BLATTANSICHT_1_GEOMETRIEAN
  6
VOLLINIE
 62
    18
 10
96.96828614748114
 20
1.499999999273292
 30
0.0
 11
96.84440826325813
 21
1.499999999273303
 31
0.0
  0
LINE
  5
483
  8
BLATTANSICHT_1_GEOMETRIEAN
  6
VOLLINIE
 62
    18
 10
96.84440826325813
 20
1.499999999273303
 30
0.0
 11
96.70948928144534
 21
1.499999999273303
 31
0.0
  0
LINE
  5
484
  8
BLATTANSICHT_1_GEOMETRIEAN
  6
VOLLINIE
 62
    18
 10
96.70948928144534
 20
1.499999999273303
 30
0.0
 11
96.56410694583587
 21
1.499999999273292
 31
0.0
  0
LINE
  5
485
  8
BLATTANSICHT_1_GEOMETRIEAN
  6
VOLLINIE
 62
    18
 10
96.4088838084469
 20
0.0
 30
0.0
 11
96.56410694703372
 21
0.0
 31
0.0
  0
LINE
  5
486
  8
BLATTANSICHT_1_GEOMETRIEAN
  6
VOLLINIE
 62
    18
 10
96.24448455499191
 20
0.0
 30
0.0
 11
96.4088838084469
 21
0.0
 31
0.0
  0
LINE
  5
487
  8
BLATTANSICHT_1_GEOMETRIEAN
  6
VOLLINIE
 62
    18
 10
96.0716131694999
 20
0.0
 30
0.0
 11
96.24448455499191
 21
0.0
 31
0.0
  0
LINE
  5
488
  8
BLATTANSICHT_1_GEOMETRIEAN
  6
VOLLINIE
 62
    18
 10
94.26600991041138
 20
-0.0000000008619961
 30
0.0
 11
94.47857007925755
 21
0.0
 31
0.0
  0
LINE
  5
489
  8
BLATTANSICHT_1_GEOMETRIEAN
  6
VOLLINIE
 62
    18
 10
94.69022003283403
 20
0.0
 30
0.0
 11
94.9000534535564
 21
0.0
 31
0.0
  0
LINE
  5
48A
  8
BLATTANSICHT_1_GEOMETRIEAN
  6
VOLLINIE
 62
    18
 10
94.47857007925755
 20
0.0
 30
0.0
 11
94.69022003283403
 21
0.0
 31
0.0
  0
LINE
  5
48B
  8
BLATTANSICHT_1_GEOMETRIEAN
  6
VOLLINIE
 62
    18
 10
93.26600991041138
 20
1.499999999138001
 30
0.0
 11
93.26600991041138
 21
2.974228970474097
 31
0.0
  0
LINE
  5
48C
  8
BLATTANSICHT_1_GEOMETRIEAN
  6
VOLLINIE
 62
    18
 10
78.26600991041141
 20
2.974228970474097
 30
0.0
 11
78.26600991041141
 21
1.499999999138001
 31
0.0
  0
LINE
  5
48D
  8
BLATTANSICHT_1_GEOMETRIEAN
  6
VOLLINIE
 62
    18
 10
94.26600991041138
 20
1.499999999138001
 30
0.0
 11
77.26600991041141
 21
1.499999999138001
 31
0.0
  0
LINE
  5
48E
  8
BLATTANSICHT_1_GEOMETRIEAN
  6
VOLLINIE
 62
    18
 10
94.26600991041138
 20
-0.0000000008619961
 30
0.0
 11
94.26600991041138
 21
1.499999999138001
 31
0.0
  0
LINE
  5
48F
  8
BLATTANSICHT_1_GEOMETRIEAN
  6
VOLLINIE
 62
    18
 10
77.26600991041141
 20
1.499999999138001
 30
0.0
 11
77.26600991041141
 21
-0.0000000008619961
 31
0.0
  0
LINE
  5
490
  8
BLATTANSICHT_1_GEOMETRIEAN
  6
VOLLINIE
 62
    18
 10
77.26600991041141
 20
-0.0000000008619961
 30
0.0
 11
94.26600991041138
 21
-0.0000000008619961
 31
0.0
  0
LINE
  5
491
  8
BLATTANSICHT_1_GEOMETRIEAN
  6
VOLLINIE
 62
    18
 10
93.26600991041138
 20
7.900961894137994
 30
0.0
 11
93.26600991041138
 21
9.199999999137987
 31
0.0
  0
LINE
  5
492
  8
BLATTANSICHT_1_GEOMETRIEAN
  6
VOLLINIE
 62
    18
 10
93.26600991041138
 20
9.199999999137987
 30
0.0
 11
78.26600991041141
 21
9.199999999137987
 31
0.0
  0
LINE
  5
493
  8
BLATTANSICHT_1_GEOMETRIEAN
  6
VOLLINIE
 62
    18
 10
78.26600991041141
 20
9.199999999137987
 30
0.0
 11
78.26600991041141
 21
7.900961894137994
 31
0.0
  0
LINE
  5
494
  8
BLATTANSICHT_1_GEOMETRIEAN
  6
VOLLINIE
 62
    18
 10
93.26600991041138
 20
5.572305181667201
 30
0.0
 11
93.26600991041138
 21
7.900961894137994
 31
0.0
  0
LINE
  5
495
  8
BLATTANSICHT_1_GEOMETRIEAN
  6
VOLLINIE
 62
    18
 10
93.26600991041138
 20
7.900961894137994
 30
0.0
 11
78.26600991041141
 21
7.900961894137994
 31
0.0
  0
LINE
  5
496
  8
BLATTANSICHT_1_GEOMETRIEAN
  6
VOLLINIE
 62
    18
 10
78.26600991041141
 20
7.900961894137994
 30
0.0
 11
78.26600991041141
 21
5.572305181667201
 31
0.0
  0
LINE
  5
497
  8
BLATTANSICHT_1_GEOMETRIEAN
  6
VOLLINIE
 62
    18
 10
93.26600990968471
 20
3.639339682458864
 30
0.0
 11
93.26600990968471
 21
3.760236860200697
 31
0.0
  0
LINE
  5
498
  8
BLATTANSICHT_1_GEOMETRIEAN
  6
VOLLINIE
 62
    18
 10
93.26600990968471
 20
3.523267074978568
 30
0.0
 11
93.26600990968471
 21
3.639339682458864
 31
0.0
  0
LINE
  5
499
  8
BLATTANSICHT_1_GEOMETRIEAN
  6
VOLLINIE
 62
    18
 10
93.26600990968471
 20
3.760236860200697
 30
0.0
 11
93.26600990968471
 21
3.885038507678976
 31
0.0
  0
LINE
  5
49A
  8
BLATTANSICHT_1_GEOMETRIEAN
  6
VOLLINIE
 62
    18
 10
93.26600990968471
 20
3.885038507678976
 30
0.0
 11
93.26600990968471
 21
4.012794808996253
 31
0.0
  0
LINE
  5
49B
  8
BLATTANSICHT_1_GEOMETRIEAN
  6
VOLLINIE
 62
    18
 10
93.26600990968471
 20
4.012794808996253
 30
0.0
 11
93.26600990968471
 21
4.14253346155523
 31
0.0
  0
LINE
  5
49C
  8
BLATTANSICHT_1_GEOMETRIEAN
  6
VOLLINIE
 62
    18
 10
93.26600990968471
 20
4.14253346155523
 30
0.0
 11
93.26600991041138
 21
4.27326707613799
 31
0.0
  0
LINE
  5
49D
  8
BLATTANSICHT_1_GEOMETRIEAN
  6
VOLLINIE
 62
    18
 10
93.26600990968471
 20
3.41290242041181
 30
0.0
 11
93.26600990968471
 21
3.523267074978568
 31
0.0
  0
LINE
  5
49E
  8
BLATTANSICHT_1_GEOMETRIEAN
  6
VOLLINIE
 62
    18
 10
93.26600990968471
 20
3.309085660400067
 30
0.0
 11
93.26600990968471
 21
3.41290242041181
 31
0.0
  0
LINE
  5
49F
  8
BLATTANSICHT_1_GEOMETRIEAN
  6
VOLLINIE
 62
    18
 10
93.26600990968471
 20
3.212606903175359
 30
0.0
 11
93.26600990968471
 21
3.309085660400067
 31
0.0
  0
LINE
  5
4A0
  8
BLATTANSICHT_1_GEOMETRIEAN
  6
VOLLINIE
 62
    18
 10
93.26600990968471
 20
3.124200410949683
 30
0.0
 11
93.26600990968471
 21
3.212606903175359
 31
0.0
  0
LINE
  5
4A1
  8
BLATTANSICHT_1_GEOMETRIEAN
  6
VOLLINIE
 62
    18
 10
93.26600990968471
 20
3.044539009772671
 30
0.0
 11
93.26600990968471
 21
3.124200410949683
 31
0.0
  0
LINE
  5
4A2
  8
BLATTANSICHT_1_GEOMETRIEAN
  6
VOLLINIE
 62
    18
 10
93.26600991041138
 20
2.974228970474097
 30
0.0
 11
93.26600990968471
 21
3.044539009772671
 31
0.0
  0
LINE
  5
4A3
  8
BLATTANSICHT_1_GEOMETRIEAN
  6
VOLLINIE
 62
    18
 10
78.26600991041141
 20
2.974228970474097
 30
0.0
 11
93.26600991041138
 21
2.974228970474097
 31
0.0
  0
LINE
  5
4A4
  8
BLATTANSICHT_1_GEOMETRIEAN
  6
VOLLINIE
 62
    18
 10
78.26600991041141
 20
3.044539009779506
 30
0.0
 11
78.26600991041141
 21
2.974228970474097
 31
0.0
  0
LINE
  5
4A5
  8
BLATTANSICHT_1_GEOMETRIEAN
  6
VOLLINIE
 62
    18
 10
78.26600991041141
 20
3.124200410984233
 30
0.0
 11
78.26600991041141
 21
3.044539009779506
 31
0.0
  0
LINE
  5
4A6
  8
BLATTANSICHT_1_GEOMETRIEAN
  6
VOLLINIE
 62
    18
 10
78.26600991041141
 20
3.212606903238504
 30
0.0
 11
78.26600991041141
 21
3.124200410984233
 31
0.0
  0
LINE
  5
4A7
  8
BLATTANSICHT_1_GEOMETRIEAN
  6
VOLLINIE
 62
    18
 10
78.26600991041141
 20
3.30908566048329
 30
0.0
 11
78.26600991041141
 21
3.212606903238504
 31
0.0
  0
LINE
  5
4A8
  8
BLATTANSICHT_1_GEOMETRIEAN
  6
VOLLINIE
 62
    18
 10
78.26600991041141
 20
3.412902420513317
 30
0.0
 11
78.26600991041141
 21
3.30908566048329
 31
0.0
  0
LINE
  5
4A9
  8
BLATTANSICHT_1_GEOMETRIEAN
  6
VOLLINIE
 62
    18
 10
78.26600991041141
 20
3.523267075095958
 30
0.0
 11
78.26600991041141
 21
3.412902420513317
 31
0.0
  0
LINE
  5
4AA
  8
BLATTANSICHT_1_GEOMETRIEAN
  6
VOLLINIE
 62
    18
 10
78.26600991041141
 20
3.639339682569632
 30
0.0
 11
78.26600991041141
 21
3.523267075095958
 31
0.0
  0
LINE
  5
4AB
  8
BLATTANSICHT_1_GEOMETRIEAN
  6
VOLLINIE
 62
    18
 10
78.26600991041141
 20
3.760236860299802
 30
0.0
 11
78.26600991041141
 21
3.639339682569632
 31
0.0
  0
LINE
  5
4AC
  8
BLATTANSICHT_1_GEOMETRIEAN
  6
VOLLINIE
 62
    18
 10
78.26600991041141
 20
3.885038507761263
 30
0.0
 11
78.26600991041141
 21
3.760236860299802
 31
0.0
  0
LINE
  5
4AD
  8
BLATTANSICHT_1_GEOMETRIEAN
  6
VOLLINIE
 62
    18
 10
78.26600991041141
 20
4.012794809056453
 30
0.0
 11
78.26600991041141
 21
3.885038507761263
 31
0.0
  0
LINE
  5
4AE
  8
BLATTANSICHT_1_GEOMETRIEAN
  6
VOLLINIE
 62
    18
 10
78.26600991041141
 20
4.142533461587998
 30
0.0
 11
78.26600991041141
 21
4.012794809056453
 31
0.0
  0
LINE
  5
4AF
  8
BLATTANSICHT_1_GEOMETRIEAN
  6
VOLLINIE
 62
    18
 10
78.26600991041141
 20
4.27326707613799
 30
0.0
 11
78.26600991041141
 21
4.142533461587998
 31
0.0
  0
LINE
  5
4B0
  8
BLATTANSICHT_1_GEOMETRIEAN
  6
VOLLINIE
 62
    18
 10
93.26600990968471
 20
5.422333740356217
 30
0.0
 11
93.26600990968471
 21
5.501995142522801
 31
0.0
  0
LINE
  5
4B1
  8
BLATTANSICHT_1_GEOMETRIEAN
  6
VOLLINIE
 62
    18
 10
93.26600990968471
 20
5.33392724699476
 30
0.0
 11
93.26600990968471
 21
5.422333740356217
 31
0.0
  0
LINE
  5
4B2
  8
BLATTANSICHT_1_GEOMETRIEAN
  6
VOLLINIE
 62
    18
 10
93.26600990968471
 20
5.501995142522801
 30
0.0
 11
93.26600991041138
 21
5.572305181667201
 31
0.0
  0
LINE
  5
4B3
  8
BLATTANSICHT_1_GEOMETRIEAN
  6
VOLLINIE
 62
    18
 10
93.26600990968471
 20
5.237448489208191
 30
0.0
 11
93.26600990968471
 21
5.33392724699476
 31
0.0
  0
LINE
  5
4B4
  8
BLATTANSICHT_1_GEOMETRIEAN
  6
VOLLINIE
 62
    18
 10
93.26600990968471
 20
5.133631728630176
 30
0.0
 11
93.26600990968471
 21
5.237448489208191
 31
0.0
  0
LINE
  5
4B5
  8
BLATTANSICHT_1_GEOMETRIEAN
  6
VOLLINIE
 62
    18
 10
93.26600990968471
 20
5.023267073501038
 30
0.0
 11
93.26600990968471
 21
5.133631728630176
 31
0.0
  0
LINE
  5
4B6
  8
BLATTANSICHT_1_GEOMETRIEAN
  6
VOLLINIE
 62
    18
 10
93.26600990968471
 20
4.907194466428453
 30
0.0
 11
93.26600990968471
 21
5.023267073501038
 31
0.0
  0
LINE
  5
4B7
  8
BLATTANSICHT_1_GEOMETRIEAN
  6
VOLLINIE
 62
    18
 10
93.26600990968471
 20
4.786297289185923
 30
0.0
 11
93.26600990968471
 21
4.907194466428453
 31
0.0
  0
LINE
  5
4B8
  8
BLATTANSICHT_1_GEOMETRIEAN
  6
VOLLINIE
 62
    18
 10
93.26600990968471
 20
4.661495642284486
 30
0.0
 11
93.26600990968471
 21
4.786297289185923
 31
0.0
  0
LINE
  5
4B9
  8
BLATTANSICHT_1_GEOMETRIEAN
  6
VOLLINIE
 62
    18
 10
93.26600990968471
 20
4.533739341606698
 30
0.0
 11
93.26600990968471
 21
4.661495642284486
 31
0.0
  0
LINE
  5
4BA
  8
BLATTANSICHT_1_GEOMETRIEAN
  6
VOLLINIE
 62
    18
 10
93.26600990968471
 20
4.404000689734167
 30
0.0
 11
93.26600990968471
 21
4.533739341606698
 31
0.0
  0
LINE
  5
4BB
  8
BLATTANSICHT_1_GEOMETRIEAN
  6
VOLLINIE
 62
    18
 10
93.26600991041138
 20
4.27326707613799
 30
0.0
 11
93.26600990968471
 21
4.404000689734167
 31
0.0
  0
LINE
  5
4BC
  8
BLATTANSICHT_1_GEOMETRIEAN
  6
VOLLINIE
 62
    18
 10
78.26600991041141
 20
4.27326707613799
 30
0.0
 11
93.26600991041138
 21
4.27326707613799
 31
0.0
  0
LINE
  5
4BD
  8
BLATTANSICHT_1_GEOMETRIEAN
  6
VOLLINIE
 62
    18
 10
78.26600991041141
 20
4.40400068975393
 30
0.0
 11
78.26600991041141
 21
4.27326707613799
 31
0.0
  0
LINE
  5
4BE
  8
BLATTANSICHT_1_GEOMETRIEAN
  6
VOLLINIE
 62
    18
 10
78.26600991041141
 20
4.533739341638846
 30
0.0
 11
78.26600991041141
 21
4.40400068975393
 31
0.0
  0
LINE
  5
4BF
  8
BLATTANSICHT_1_GEOMETRIEAN
  6
VOLLINIE
 62
    18
 10
78.26600991041141
 20
4.661495642321201
 30
0.0
 11
78.26600991041141
 21
4.533739341638846
 31
0.0
  0
LINE
  5
4C0
  8
BLATTANSICHT_1_GEOMETRIEAN
  6
VOLLINIE
 62
    18
 10
78.26600991041141
 20
4.786297289218984
 30
0.0
 11
78.26600991041141
 21
4.661495642321201
 31
0.0
  0
LINE
  5
4C1
  8
BLATTANSICHT_1_GEOMETRIEAN
  6
VOLLINIE
 62
    18
 10
78.26600991041141
 20
4.907194466449366
 30
0.0
 11
78.26600991041141
 21
4.786297289218984
 31
0.0
  0
LINE
  5
4C2
  8
BLATTANSICHT_1_GEOMETRIEAN
  6
VOLLINIE
 62
    18
 10
78.26600991041141
 20
5.023267073501038
 30
0.0
 11
78.26600991041141
 21
4.907194466449366
 31
0.0
  0
LINE
  5
4C3
  8
BLATTANSICHT_1_GEOMETRIEAN
  6
VOLLINIE
 62
    18
 10
78.26600991041141
 20
5.133631728571578
 30
0.0
 11
78.26600991041141
 21
5.023267073501038
 31
0.0
  0
LINE
  5
4C4
  8
BLATTANSICHT_1_GEOMETRIEAN
  6
VOLLINIE
 62
    18
 10
78.26600991041141
 20
5.237448489085759
 30
0.0
 11
78.26600991041141
 21
5.133631728571578
 31
0.0
  0
LINE
  5
4C5
  8
BLATTANSICHT_1_GEOMETRIEAN
  6
VOLLINIE
 62
    18
 10
78.26600991041141
 20
5.333927246803859
 30
0.0
 11
78.26600991041141
 21
5.237448489085759
 31
0.0
  0
LINE
  5
4C6
  8
BLATTANSICHT_1_GEOMETRIEAN
  6
VOLLINIE
 62
    18
 10
78.26600991041141
 20
5.422333740078192
 30
0.0
 11
78.26600991041141
 21
5.333927246803859
 31
0.0
  0
LINE
  5
4C7
  8
BLATTANSICHT_1_GEOMETRIEAN
  6
VOLLINIE
 62
    18
 10
78.26600991041141
 20
5.501995142157513
 30
0.0
 11
78.26600991041141
 21
5.422333740078192
 31
0.0
  0
LINE
  5
4C8
  8
BLATTANSICHT_1_GEOMETRIEAN
  6
VOLLINIE
 62
    18
 10
78.26600991041141
 20
5.572305181667201
 30
0.0
 11
78.26600991041141
 21
5.501995142157513
 31
0.0
  0
LINE
  5
4C9
  8
BLATTANSICHT_1_GEOMETRIEAN
  6
VOLLINIE
 62
    18
 10
93.26600991041138
 20
5.572305181667201
 30
0.0
 11
78.26600991041141
 21
5.572305181667201
 31
0.0
  0
VIEWPORT
  5
61
 67
     1
  8
0
 10
0.0
 20
0.0
 30
0.0
 40
1.0
 41
1.0
 68
     1
 69
     1
1001
ACAD
1000
MVIEW
1002
{
1070
    16
1010
0.0
1020
0.0
1030
0.0
1020
0.0
1030
0.0
1010
0.0
1020
0.0
1030
1.0
1020
0.0
1030
1.0
1040
0.0
1040
1.0
1040
0.0
1040
0.0
1040
50.0
1040
0.0
1040
0.0
1070
     0
1070
   100
1070
     0
1070
     3
1070
     0
1070
     0
1070
     0
1070
     0
1040
0.0
1040
0.0
1040
0.0
1040
0.5
1040
0.5
1040
0.0
1040
0.0
1070
     0
1002
{
1002
}
1002
}
  0
ENDSEC
  0
EOF
